QUEEN Tabs, keep yourself alive
Search tabs by artist/band name or song title:  

QUEEN Tabs - keep yourself alive Guitar Tablatures, Chords






keep yourself alive tabs @ 911Tabs
#----------------------------------PLEASE NOTE----------------------------------#
# This file is the author's own work and represents their interpretation of the #
# song. You may only use this file for private study, scholarship, or research. #
#-------------------------------------------------------------------------------#

Album:Queen (eponymously titled)
Tabbed by: Tom Foster
Difficulty:6/10


Gtr1
-----------------------------------------------
-----------------------------------------------
-----------------------------------------------
-----------------------------------------------
-----------------------------------------------
10-10-10/-11111111111111111/5555555555555555555 cut to

Gtr2
-----------------------------------------------
-----------------------------------------------
-----------------------------------------------
-----------------------------------------------
77777777777777777777777777777777777777777777777
00000000000000000000000000000000000000000000000
-----------------------------------------------

Gtr3 Part (Riff)
-----------------------------------------------
7^7---7^7-5----7--5^---------------------------
7^7---7^7-5----7--5^---------------------------
------------7--------7h5---5-7-----------------
-------------------------7---------------------
----------------------------------------------- Rpt till verse...





QUEEN Chords - keep yourself alive Tabs, Tab for Guitar

Site contains QUEEN tabs (tablatures), chords, song lyrics of popular songs, compilations.
You may find keep yourself alive - QUEEN tab, lyric, free tabs for guitars and basses here.


© 2002 TabPower.com All tabs are the author's own work and represents their interpretation of the QUEEN song.
You may only use this QUEEN tab for private study, scholarship, or research.
keep yourself alive Tab by QUEEN Tabs/Chords/Tablatures
Online Guitar Lessons