GREEN DAY Tabs, all by myself
Search tabs by artist/band name or song title:  

GREEN DAY Tabs - all by myself Guitar Tablatures, Chords






all by myself tabs @ 911Tabs
#----------------------------------PLEASE NOTE----------------------------------#
# This file is the author's own work and represents their interpretation of the #
# song. You may only use this file for private study, scholarship, or research. #
#-------------------------------------------------------------------------------#


All By Myself---- Greenday

Figured this one out on my own!

ENJOY!

 |   |   |    |   |   |    |   |   |    |   |   |
|2-----2-----|2-----2--3--|---3-----3--|---3-----2--|
|---3-----3--|---3--------|3-----3-----|3-----3-----|
|------------|---------0--|------------|------------|
|0-----------|------------|------------|---------0--|
|------------|------------|------------|------------|
|------------|------------|------------|------------|
                             
                                                   -----|          
|---2-----2--|---2-----3--|---3-----3--|---3--------|   |           
|3-----3-----|3-----3-----|3-----3-----|3-----3-----|   |           
|------------|---------0--|------------|------------|   |               
|------------|------------|------------|------------|   |     <-----   
|------------|------------|------------|------------|   | 
|------------|------------|------------|------------|   |
Begin Singing...Repeat that line                   -----|
                                     

|4-----4-----|4-----4-----|5-----5-----|5-----5-----|
|---5-----5--|---5-----5--|---5-----5--|---5-----5--|
|------------|------------|------------|------------|
|------------|------------|------------|------------|
|------------|------------|0-----------|------------|
|0-----------|------------|------------|------------|

                              
|4-----4-----|4-----4-----|5-----5-----|5-----5-----|
|---5-----5--|---5-----5--|---5-----5--|---5-----5--|
|------------|------------|------------|------------|
|------------|------------|------------|------------|
|------------|------------|0-----------|------------|
|0-----------|------------|------------|------------|
Begin Singing...Repeat last line

REPEAT ALL FOR NEXT CHORUS 2X'S



Lyrics:

I was alone, 
I was all by myself,
No one was looking,
I was thinking of you.

Oh did I mention,
I was all by myself,
All by myself,
All by myslef.

I went to your house,
No one was there,
I went to your room, 
I was all by myself.

Oh that we had,
Such wonderfull times,
When I'm all by myself,
All by myself,
All by myself,
All by myself....POP





GREEN DAY Chords - all by myself Tabs, Tab for Guitar

Site contains GREEN DAY tabs (tablatures), chords, song lyrics of popular songs, compilations.
You may find all by myself - GREEN DAY tab, lyric, free tabs for guitars and basses here.


© 2002 TabPower.com All tabs are the author's own work and represents their interpretation of the GREEN DAY song.
You may only use this GREEN DAY tab for private study, scholarship, or research.
all by myself Tab by GREEN DAY Tabs/Chords/Tablatures
Online Guitar Lessons