CAKE Tabs, building a religion
Search tabs by artist/band name or song title:  

CAKE Tabs - building a religion Guitar Tablatures, Chords






building a religion tabs @ 911Tabs
#----------------------------------PLEASE NOTE----------------------------------#
# This file is the author's own work and represents their interpretation of the #
# song. You may only use this file for private study, scholarship, or research. #
#-------------------------------------------------------------------------------#

I dont know much about this band but this song you will probs reconinise from the film Shallow Hal. This song is simple and fun to play.
You will need to mess with the amp settings a bit to get the sharp percusion sound for the power chords
The rhythm here is not 100% but play around with these chords.

Main riff.
(This part is played over through most of the song)

d -|---2-222-22-3-2------2--22-22-3-6-3-2-|
a -|---2-222-22-3-2------2--22-22-3-6-3-2-|
e -|---0-000-00-1-0------0--00-00-1-4-1-0-|



Bridge riff

     "now do u believe, in the one big sign...."

d -|--2-3-6--77-799-966-66----|
a -|--2-3-6--77-799-966-66----| (repeats 3
e -|--0-1-4--55-577-744-44----|  times)


then plays...

d -|--33-333-333---|
a -|--33-333-333---| untill the beat stops
e -|--11-111-111---|



heres the riff that keeps comin up in some parts of the song

e -|----12-13-12---10-12-10--8-7----------->
b -|--------------------------------------->
g -|-9-----------9------------------------->


e ->----7-8-7------------------------------|
b ->------------10-12-10--10-9-------------|
g ->-9--------9----------------------------|



Finally, the low note riff that is heard near the end of the song

d -|--------------------------------------|
a -|--7-8-7---5-7-5--3---2-3-2------------|
e -|-2------2----------2------2--5-7-5--4-|


Enjoy!

Any corrections, please email me: christiansayer@hotmail.com





CAKE Chords - building a religion Tabs, Tab for Guitar

Site contains CAKE tabs (tablatures), chords, song lyrics of popular songs, compilations.
You may find building a religion - CAKE tab, lyric, free tabs for guitars and basses here.


© 2002 TabPower.com All tabs are the author's own work and represents their interpretation of the CAKE song.
You may only use this CAKE tab for private study, scholarship, or research.
building a religion Tab by CAKE Tabs/Chords/Tablatures
Online Guitar Lessons