LED ZEPPELIN Tabs, whole lotta love
Search tabs by artist/band name or song title:  

LED ZEPPELIN Tabs - whole lotta love Guitar Tablatures, Chords






whole lotta love tabs @ 911Tabs
#----------------------------------PLEASE NOTE----------------------------------#
# This file is the author's own work and represents their interpretation of the #
# song. You may only use this file for private study, scholarship, or research. #
#-------------------------------------------------------------------------------#


i have seen alot of crappy version of the song and i think it gos like this


|---------------------------------------
|---------------------------------------
|---------------------------------------
|--------------9-----9-----9-----9-----9
|------5---5---7-----7-----7-----7-----7
|--5/7---7-----0-0-0-0-0-0-0-0-0-0-0-0-0


|-------------------|
|-------------------|      
|-------------------|     
|------9-----9-----9|     
|------7-----7-----7|       
|--0-0-0-0-0-0-0-0-0|

     play all of this 
     two times and
     it changes 2 this


|-----------------------------|
|-----------------------------|  this plays
|-----------------------------|  throughout
|---------------9-----9-----9-|  the song
|------5---5----7-----7-----7-|   
|--5/7---7------0-0-0-0-0-0-0-|





LED ZEPPELIN Chords - whole lotta love Tabs, Tab for Guitar

Site contains LED ZEPPELIN tabs (tablatures), chords, song lyrics of popular songs, compilations.
You may find whole lotta love - LED ZEPPELIN tab, lyric, free tabs for guitars and basses here.


© 2002 TabPower.com All tabs are the author's own work and represents their interpretation of the LED ZEPPELIN song.
You may only use this LED ZEPPELIN tab for private study, scholarship, or research.
whole lotta love Tab by LED ZEPPELIN Tabs/Chords/Tablatures
Online Guitar Lessons