LED ZEPPELIN Tabs, heartbreaker
Search tabs by artist/band name or song title:  

LED ZEPPELIN Tabs - heartbreaker Guitar Tablatures, Chords






heartbreaker tabs @ 911Tabs
#----------------------------------PLEASE NOTE----------------------------------#
# This file is the author's own work and represents their interpretation of the #
# song. You may only use this file for private study, scholarship, or research. #
#-------------------------------------------------------------------------------#

Intro
-----------------------------
-----------------------------
-----------------------------
-----0--1-2-----------0--1-2-
--0-3-------0-0-0-0-3--------
-3---------3-----------------3
Then
-----------------------------
-----------------------------
-----------------------------
-----2--3-4-----------2--3-4-
--2-5-------2-2-2-2-5--------
-5---------5----------------3

Verse
------------------------------------------------------
------------------------------------------------------
-2----------------7------------------------------7----
-2----------------7--7\--------------------------7--7\
-0----------------5--7\--------------------------5--7\
---------------------5\-----------------------------5\
Then after he sings "but from her eyes a different smile, like that of one who knows"
-----0--2--0--2--0
-----2--3--2--3--2
-7---2--2--2--2--2
-7---2--0--2--0--2
-5---0-----0-----0
------------------
Then repeat from the beginning

After you've played it through this happens
-----------------------------------------------------------------------------------------
-----------------------------------------------------------------------------------------
-----------------------------------------------------------------------------------------
-----3-4-5-----------3-4-5----3-4-5----------3-4-5----5-6-7----------5-6-7-----7-8-9-----
-3-6-------3-3-3-3-6-------3-6------3-3-3-3-6------5-8------5-5-5-5-8------7-10-------7-7
----------6---------------6--------6--------------6--------8--------------8---------10---

--------------
--------------
--------------
-------7-8-9--
-7-7-10-------
------------10
Then theres a little bit before the solo
------------------              ------
------------------              ------
--7-7-7--7-7-7-9-9  Repeat then -9-9-9  
-9-9---9----9-----              -7-7-7  Keep playing the power chords until the solo
------------------              -7-7-7         
------------------              -0-0-0  

If anyone wants the solo for this e-mail me at zarlantbitter@hotmail.co.uk and i'll tab it for you
Matt Deveson





LED ZEPPELIN Chords - heartbreaker Tabs, Tab for Guitar

Site contains LED ZEPPELIN tabs (tablatures), chords, song lyrics of popular songs, compilations.
You may find heartbreaker - LED ZEPPELIN tab, lyric, free tabs for guitars and basses here.


© 2002 TabPower.com All tabs are the author's own work and represents their interpretation of the LED ZEPPELIN song.
You may only use this LED ZEPPELIN tab for private study, scholarship, or research.
heartbreaker Tab by LED ZEPPELIN Tabs/Chords/Tablatures
Online Guitar Lessons