BLACK SABBATH Tabs, ironman
Search tabs by artist/band name or song title:  

BLACK SABBATH Tabs - ironman Guitar Tablatures, Chords






ironman tabs @ 911Tabs
#----------------------------------PLEASE NOTE----------------------------------#
# This file is the author's own work and represents their interpretation of the #
# song. You may only use this file for private study, scholarship, or research. #
#-------------------------------------------------------------------------------#

My guitar teacher taught me this one

E|-----------------------------------------
B|-----------------------------------------
G|-----------------------------------------
D|-4---7--7-9-9-------------------7--7-9-9-
A|-2---5--5-7-7--10-9-10-9-10-9---5--5-7-7-
E|-----------------------------------------

E|----------------------------------------------------------------
B|----------------------------------------------------------------
G|----------------------------------------------------------------
D|----------------------------------------------------------------  play slowly
A|-------5-------------------------------5------------------------
E|-7--7-----7--6--5-5-5-0-4-5-5-6--7--7-----7--6--5-5-5-0-4-5-5-6-

E|---------------------------------------
B|---------------------------------------
G|-------------------------------2-2-3-4-
D|-9~~~-7~~~---------0--2-2-3-4----------
A|-7~~~-5~~~-2--2--2---------------------
E|---------------------------------------





BLACK SABBATH Chords - ironman Tabs, Tab for Guitar

Site contains BLACK SABBATH tabs (tablatures), chords, song lyrics of popular songs, compilations.
You may find ironman - BLACK SABBATH tab, lyric, free tabs for guitars and basses here.


© 2002 TabPower.com All tabs are the author's own work and represents their interpretation of the BLACK SABBATH song.
You may only use this BLACK SABBATH tab for private study, scholarship, or research.
ironman Tab by BLACK SABBATH Tabs/Chords/Tablatures
Online Guitar Lessons