CAKE Tabs, let me go
Search tabs by artist/band name or song title:  

CAKE Tabs - let me go Guitar Tablatures, Chords






let me go tabs @ 911Tabs
#----------------------------------PLEASE NOTE----------------------------------#
# This file is the author's own work and represents their interpretation of the #
# song. You may only use this file for private study, scholarship, or research. #
#-------------------------------------------------------------------------------#

Artist: Cake
Song: Let Me Go 
Album: Prolonging The Magic

Tabbed by: Jay Smith

I was just lookin around for this tab by Cake, cause I liked the intro...But I couldn't find a correct version...So I just tabbed it real quick myself. If
you want me to tab the rest of the song, it sounds easy enough...E-mail me.

Easy Rhythm to get

e|--------------------------------------------------------------|
b|-2-2-2-2-2----3-3-3-3-3-3-3-3----2-2-2-2-2----5-5-5-5-5-5-5-5-|
g|-2-2-2-2-2----2-2-2-2-2-2-2-2----2-2-2-2-2----4-4-4-4-4-4-4-4-|
d|--------------------------------------------------------------|
a|--------------------------------------------------------------|
e|--------------------------------------------------------------|

The RIGHT version of this part...all the other versions on this song are super wrong:

I play most of the riff with pulls offs...It's too fast to pick each note smoothly.

e|-----------------------------------|
b|---------------------------------3-| 
g|---2-1---1----------------------2--|  
d|-------4---4-2-0---------------0---|  
a|-0---------------4-2-0---0-0-------|    
e|-----------------------4-----2-----|  
                                        
e|----------------------------------0|
b|---------------------------------0-| 
g|---2-1---1-------------------------|  
d|-------4---4-2-0---------------2---|   
a|-0---------------4-2-0---0-0-------|    
e|-----------------------4-----4-----|

jaytsmith@yahoo.com





CAKE Chords - let me go Tabs, Tab for Guitar

Site contains CAKE tabs (tablatures), chords, song lyrics of popular songs, compilations.
You may find let me go - CAKE tab, lyric, free tabs for guitars and basses here.


© 2002 TabPower.com All tabs are the author's own work and represents their interpretation of the CAKE song.
You may only use this CAKE tab for private study, scholarship, or research.
let me go Tab by CAKE Tabs/Chords/Tablatures
Online Guitar Lessons