NIRVANA Tabs, all apologies
Search tabs by artist/band name or song title:  

NIRVANA Tabs - all apologies Guitar Tablatures, Chords






all apologies tabs @ 911Tabs
#----------------------------------PLEASE NOTE----------------------------------#
# This file is the author's own work and represents their interpretation of the #
# song. You may only use this file for private study, scholarship, or research. #
#-------------------------------------------------------------------------------#


everyone and i mean everyoner gets this wrong:
 
that is the main riff and it sounds pretty good

e-------------------------------------
b-------------------------------------
g-------------------------------------
d---------------------------12-12-10-9
a-9-9-10-12-12-10-9--9-9-10-----------
E-------------------------------------

OR, OR , OR:

an easier version i found out sitting at the cafe was:
this one might be a little off

e-----------------------------------
b-----------------------------------
g---------------------------6-6-4-3-
d-3-3-4-3-6-6-4-3---3-3-4-3---------
a-----------------------------------
E-----------------------------------

i think this is also during the verse



this is probably the rest of the song


e----------------------------------------|-
b----------------------------------------|-
g----------------------------------------|-
d-5-5-5--0-5-5-5--0-5-5-5--0-5-5-5--0--7-|-
a-5-5-5--0-5-5-5--0-5-5-5--0-5-5-5--0--7-|-
E-5-5-5--0-5-5-5--0-5-5-5--0-5-5-5--0--7-|-

PEACE






NIRVANA Chords - all apologies Tabs, Tab for Guitar

Site contains NIRVANA tabs (tablatures), chords, song lyrics of popular songs, compilations.
You may find all apologies - NIRVANA tab, lyric, free tabs for guitars and basses here.


© 2002 TabPower.com All tabs are the author's own work and represents their interpretation of the NIRVANA song.
You may only use this NIRVANA tab for private study, scholarship, or research.
all apologies Tab by NIRVANA Tabs/Chords/Tablatures
Online Guitar Lessons