SCORPIONS Tabs, rock you like a huricane
Search tabs by artist/band name or song title:  

SCORPIONS Tabs - rock you like a huricane Guitar Tablatures, Chords






rock you like a huricane tabs @ 911Tabs
#----------------------------------PLEASE NOTE----------------------------------#
# This file is the author's own work and represents their interpretation of the #
# song. You may only use this file for private study, scholarship, or research. #
#-------------------------------------------------------------------------------#

the one scorpions tab for rock u like a hurricane is wrong
here is the version i got from the book
 
E -------------------------------------
B -------------------------------------
G ---9-9-9-------------5--7-7----------
D ---9-9-9---5-5--7-7--5--7-7----------
A ---7-7-7---5-5--7-7--3--5-5----------
E -----------3-3--5-5------------------

PALM MUTE THIS ENTIRE PART
E -----------------------------------------------------------
B -----------------------------------------------------------
G -5--5--5--9--9--9--9--9-------5--5--5--9--9--7--7--7-------
D -5--5--5--9--9--9--9--9-------5--5--5--9--9--7--7--7-------
A -3--3--3--7--7--7--7--7-------3--3--3--7--7--5--5--5-------
E -----------------------------------------------------------

E --------------------------------------------------------------
B --------------------------------------------------------------
G --5--5--5--9--9--9--9--9--------5--5--5--7--7--7--7--7--------
D --5--5--5--9--9--9--9--9--------5--5--5--7--7--7--7--7--------
A --3--3--3--7--7--7--7--7--------3--3--3--5--5--5--5--5--5--7--
E --------------------------------------------------------------

I HAVE THE REST BUT IM TOO LAZY TO TAB IT IF U REALLY NEED IT OR THE SOLO EMAIL ME AT

metalfiish@yahoo.com

good luck with this tab its badass just like their song "no one like u"





SCORPIONS Chords - rock you like a huricane Tabs, Tab for Guitar

Site contains SCORPIONS tabs (tablatures), chords, song lyrics of popular songs, compilations.
You may find rock you like a huricane - SCORPIONS tab, lyric, free tabs for guitars and basses here.


© 2002 TabPower.com All tabs are the author's own work and represents their interpretation of the SCORPIONS song.
You may only use this SCORPIONS tab for private study, scholarship, or research.
rock you like a huricane Tab by SCORPIONS Tabs/Chords/Tablatures
Online Guitar Lessons