SCORPIONS Tabs, daddys girl
Search tabs by artist/band name or song title:  

SCORPIONS Tabs - daddys girl Guitar Tablatures, Chords






daddys girl tabs @ 911Tabs
#----------------------------------PLEASE NOTE----------------------------------#
# This file is the author's own work and represents their interpretation of the #
# song. You may only use this file for private study, scholarship, or research. #
#-------------------------------------------------------------------------------#

Band:  Scorpions
Album: Face the heat
Song:  Daddy's girl

Copyright (c)  Mercury 1993
Version 1.0 - 07/11/2006

Transcribed By: Konstantin Morozov
Email:          snoiprocks@yahoo.com


.  - palm mute           /  - slide up to
\  - slide down to       ~  - vibrato
h  - hammer on           b  - Bend
p  - pull off            Suffixes for bend
t  - tap                 f  - full bend    h - half bend
ph - pinched harmonic    q  - quarter bend t - tap bend
*  - see comment         ^  - Hold bend    r release bend
x  - Stuccatto           ~  - vibrato bend
,  - slight palm mute    () - ghost note, sustained note
"  - tremolo note        <> - Trill

Tuning E A D G B E

Verse:

   Bm * 7 times     D * 4 times     Bm * 4 times
|-------------------------------------------------------------------|
|------3-----2---------7-----7---------3-----2----------------------|
|----4-----4---------7-----7---------4-----4------------------------|
|--------4---------------7---------------4--------------------------|
|--2---------------5---------------2--------------------------------|
|-------------------------------------------------------------------|

Chorus:

    A           G * 3 times   A           F#          G * 2 times
|-------------------------------------------------------------------|
|------5-----5------3-----3-------5-----5-----2-----2-----3-----3---|
|----6-----6------4-----4-------6-----6-----3-----3-----4-----4-----|
|--------7------------5-------------7-----------4-----------5-------|
|--7------------5-------------7-----------4-----------5-------------|
|-------------------------------------------------------------------|
   A           F#           G             Bm
|-------------------------------------------------------------------|
|------5-----5-----2-----2------3-----3-------3----2----------------|
|----6-----6-----3-----3------4-----4-------4-----4-----------------|
|--------7-----------4------------5-------------4-------------------|
|--7-----------4------------5-------------2-------------------------|
|-------------------------------------------------------------------|

Bridge:

 ( Em            Bm          G           A ) * 2 times
|-------------------------------------------------------------------|
|------8-----8------3-----3-----3-----3-----5-----5-----------------|
|----9-----9------4-----4-----4-----4-----6-----6-------------------|
|--------9------------4-----------5-----------7---------------------|
|--7------------2-----------5-----------7---------------------------|
|-------------------------------------------------------------------|





SCORPIONS Chords - daddys girl Tabs, Tab for Guitar

Site contains SCORPIONS tabs (tablatures), chords, song lyrics of popular songs, compilations.
You may find daddys girl - SCORPIONS tab, lyric, free tabs for guitars and basses here.


© 2002 TabPower.com All tabs are the author's own work and represents their interpretation of the SCORPIONS song.
You may only use this SCORPIONS tab for private study, scholarship, or research.
daddys girl Tab by SCORPIONS Tabs/Chords/Tablatures
Online Guitar Lessons