SCORPIONS Tabs, still loving you
Search tabs by artist/band name or song title:  

SCORPIONS Tabs - still loving you Guitar Tablatures, Chords






still loving you tabs @ 911Tabs
#----------------------------------PLEASE NOTE----------------------------------#
# This file is the author's own work and represents their interpretation of the #
# song. You may only use this file for private study, scholarship, or research. #
#-------------------------------------------------------------------------------#

Band:  Scorpions
Album: Love at first sting
Song:  Still loving you

Copyright (c)  Harvest 1984
Version 1.0 - 07/11/2006

Transcribed By: Konstantin Morozov
Email:          snoiprocks@yahoo.com


.  - palm mute           /  - slide up to
\  - slide down to       ~  - vibrato
h  - hammer on           b  - Bend
p  - pull off            Suffixes for bend
t  - tap                 f  - full bend    h - half bend
ph - pinched harmonic    q  - quarter bend t - tap bend
*  - see comment         ^  - Hold bend    r release bend
x  - Stuccatto           ~  - vibrato bend
,  - slight palm mute    () - ghost note, sustained note
"  - tremolo note        <> - Trill

Tuning E A D G B E

Intro:
1st guitar:

|---6------6------6----9/8-6----6--------5--------------------------|
|-----8------8------8--------8----8--------7------------------------|
|-------7------7------7-------------7--------5----------------------|
|--0----------------------------------8--------7--------------------|
|---------8------6-------------6--------5---------------------------|
|-------------------------------------------------------------------|

|---6------6------6----9/8-6----6--------5--------------------------|
|-----8------8------8--------8----8--------7------------------------|
|-------7------7------7-------------7--------5----------------------|
|--0----------------------------------8-----------------------------|
|---------8------6-------------6--------5---------------------------|
|-------------------------------------------------------------------|

2nd guitar:

|--------3-------3-------3-------------3-----------2----------------|
|------3-------3-------3---2-1/2/1-0-----3------3-------------------|
|----3-------3-------3---------------------3------2-----------------|
|--5-------3-------1-----------------1-------1-0--------------------|
|-------------------------------------------------------------------|
|-------------------------------------------------------------------|

Verse:

   Gm * 4 times        A                    D * 2 times
|----6-----6-----6-------9--------9----------2-----2-----2----------|
|------8-----8-------------10-------10---------3-----3--------------|
|--------7-----7-------9------9--------9---------2-----2------------|
|--0----------------------------11---------0------------------------|
|-------------------------------------------------------------------|
|-------------------------------------------------------------------|

Chorus:

  Gm  Eb  Bb   F  Gm  Eb  Bb   F  Gm  Cm   D  Gm/F  Eb   F
|--3---3---1---1---3---3---1---1---3---3---5---3/1---3---1-----------|
|--3---4---3---1---3---4---3---1---3---4---7---3/1---4---1-----------|
|--3---3---3---2---3---3---3---2---3---5---7---3/2---3---2-----------|
|--5---5---3---3---5---5---3---3---5---5---7---5/3---5---3-----------|
|--5---6---1---3---5---6---1---3---5---3---5---5/3---6---3-----------|
|--3---3---1---1---3---3---1---1---3---3---5---3/1---3---1-----------|

During solo Intro is played.





SCORPIONS Chords - still loving you Tabs, Tab for Guitar

Site contains SCORPIONS tabs (tablatures), chords, song lyrics of popular songs, compilations.
You may find still loving you - SCORPIONS tab, lyric, free tabs for guitars and basses here.


© 2002 TabPower.com All tabs are the author's own work and represents their interpretation of the SCORPIONS song.
You may only use this SCORPIONS tab for private study, scholarship, or research.
still loving you Tab by SCORPIONS Tabs/Chords/Tablatures
Online Guitar Lessons