SCORPIONS Tabs, wind of change
Search tabs by artist/band name or song title:  

SCORPIONS Tabs - wind of change Guitar Tablatures, Chords






wind of change tabs @ 911Tabs
#----------------------------------PLEASE NOTE----------------------------------#
# This file is the author's own work and represents their interpretation of the #
# song. You may only use this file for private study, scholarship, or research. #
#-------------------------------------------------------------------------------#

Band:  Scorpions
Album: Crazy World
Song:  Wind of change

Copyright (c)  Mercury 1990
Version 1.0 - 07/10/2006

Transcribed By: Konstantin Morozov
Email:          Snoiprocks@yahoo.com


.  - palm mute           /  - slide up to
\  - slide down to       ~  - vibrato
h  - hammer on           b  - Bend
p  - pull off            Suffixes for bend
t  - tap                 f  - full bend    h - half bend
ph - pinched harmonic    q  - quarter bend t - tap bend
*  - see comment         ^  - Hold bend    r release bend
x  - Stuccatto           ~  - vibrato bend
,  - slight palm mute    () - ghost note, sustained note
"  - tremolo note        <> - Trill

Tuning E A D G B E
Intro:

   F  Dm   F  Dm  Am7  Dm    Am7       G
|--1---1---1---1---0----1-------0-----------------------------------|
|--1---3---1---3---1------3-------1-----3---------------------------|
|--2---2---2---2---0--------2-------0-----4-------------------------|
|--3---0---3---0---2---0--------------------5-----------------------|
|--3---x---3---x---0----------0-------------------------------------|
|--1---x---1---x---x-------------------3----------------------------|

Verse:

   C  Dm   C  Dm      Am7       G
|--0---1---0-----1-------0------------------------------------------|
|--1---3---1-------3-------1------3---------------------------------|
|--0---2---0---------2-------0------4-------------------------------|
|--2---0---2---0----------------------5-----------------------------|
|--3---x---3-----------0--------------------------------------------|
|--x---x---x--------------------3-----------------------------------|

Chorus:

   C   G  Dm   G   C   G  Dm   G  Am   F   G
|--0---3---1---3---0---3---1---3---0---1---3------------------------|
|--1---3---3---3---1---3---3---3---1---1---3------------------------|
|--0---0---2---0---0---0---2---0---2---2---4------------------------|
|--2---0---0---0---2---0---0---0---2---3---5------------------------|
|--3---2---x---2---3---2---x---2---0---3---5------------------------|
|--x---3---x---3---x---3---x---3---x---1---3------------------------|

Bridge:

  Am   G  Am   G   C  Dm   E
|--0---3---0---3---0---1---0----------------------------------------|
|--1---3---1---3---1---3---0----------------------------------------|
|--2---0---2---0---0---2---1----------------------------------------|
|--2---0---2---0---2---0---2----------------------------------------|
|--0---2---0---2---3---x---2----------------------------------------|
|--x---3---x---3---x---x---0----------------------------------------|

Solo:

   F   G   E  Am   F   G  Am   F   G  Em7 Am  Dm   E
|--1---3---0---0---1---3---0---1---3---0---0---1---0----------------|
|--1---3---0---1---1---3---1---1---3---0---1---3---0----------------|
|--2---4---1---2---2---4---2---2---4---1---2---2---1----------------|
|--3---5---2---2---3---5---2---3---5---0---2---0---2----------------|
|--3---5---2---0---3---5---0---3---5---2---0---x---2----------------|
|--1---3---0---x---1---3---x---1---3---0---x---x---0----------------|



END





SCORPIONS Chords - wind of change Tabs, Tab for Guitar

Site contains SCORPIONS tabs (tablatures), chords, song lyrics of popular songs, compilations.
You may find wind of change - SCORPIONS tab, lyric, free tabs for guitars and basses here.


© 2002 TabPower.com All tabs are the author's own work and represents their interpretation of the SCORPIONS song.
You may only use this SCORPIONS tab for private study, scholarship, or research.
wind of change Tab by SCORPIONS Tabs/Chords/Tablatures
Online Guitar Lessons