SCORPIONS Tabs, under the same sun
Search tabs by artist/band name or song title:  

SCORPIONS Tabs - under the same sun Guitar Tablatures, Chords






under the same sun tabs @ 911Tabs
#----------------------------------PLEASE NOTE----------------------------------#
# This file is the author's own work and represents their interpretation of the #
# song. You may only use this file for private study, scholarship, or research. #
#-------------------------------------------------------------------------------#

Band:  Scorpions
Album: Face the heat
Song:  Under the same sun

Copyright (c)  (Psm Records) (1993)
Version 1.0 - 31/10/2006

Transcribed By: Konstantin Morozov
Email:          snoiprocks@yahoo.com


.  - palm mute           /  - slide up to
\  - slide down to       ~  - vibrato
h  - hammer on           b  - Bend
p  - pull off            Suffixes for bend
t  - tap                 f  - full bend    h - half bend
ph - pinched harmonic    q  - quarter bend t - tap bend
*  - see comment         ^  - Hold bend    r release bend
x  - Stuccatto           ~  - vibrato bend
,  - slight palm mute    () - ghost note, sustained note
"  - tremolo note        <> - Trill

Tuning E A D G B E


Intro and verse:
e----------------------------------
-----------------------------------
-------------------------0---------
------0------0-------0------0------
----2--2---3---3---5---5-----------
E-2------3-------5-----------------


e----------------------------------
-----------------------------------
-----------------------------------
------0-------0-------0---5-5/4-2-0
----2---2---3---3---5---5----------
E-2-------3-------5----------------

Verse:
 Bm   C   D
|-2---3---5---------------------------------------------------------|
|-3---5---7---------------------------------------------------------|
|-4---5---7---------------------------------------------------------|
|-4---5---7---------------------------------------------------------|
|-2---3---5---------------------------------------------------------|
|-2---3---5---------------------------------------------------------|

Bridge:
 Em   A  F#m Bm  Em   A
|-0---0---2---2---0---0----------------------------------------------|
|-0---2---2---3---0---2----------------------------------------------|
|-0---2---2---4---0---2----------------------------------------------|
|-2---2---4---4---2---2----------------------------------------------|
|-2---0---4---2---2---0----------------------------------------------|
|-0---0---2---2---0---0---------------------------------------------|

Chorus:                         (D7 is played instead of "A" before 
  D  F#m  D  F#m  B  Bb   D   A                solo)
|-2---2---2---2---2---1---2---0-------------------------------------|
|-3---2---3---2---4---3---3---2-------------------------------------|
|-2---2---2---2---4---3---2---2-------------------------------------|
|-0---4---0---4---4---3---0---2-------------------------------------|
|-x---4---x---4---2---1---x---0-------------------------------------|
|-x---2---x---2---2---1---x---0-------------------------------------|

Solo:
( Bm   A   E   G )* 2 times
|--2---5---0---3----------------------------------------------------|
|--3---5---0---3----------------------------------------------------|
|--4---6---1---0----------------------------------------------------|
|--4---7---2---0----------------------------------------------------|
|--2---7---2---2----------------------------------------------------|
|--2---5---0---3----------------------------------------------------|

|END





SCORPIONS Chords - under the same sun Tabs, Tab for Guitar

Site contains SCORPIONS tabs (tablatures), chords, song lyrics of popular songs, compilations.
You may find under the same sun - SCORPIONS tab, lyric, free tabs for guitars and basses here.


© 2002 TabPower.com All tabs are the author's own work and represents their interpretation of the SCORPIONS song.
You may only use this SCORPIONS tab for private study, scholarship, or research.
under the same sun Tab by SCORPIONS Tabs/Chords/Tablatures
Online Guitar Lessons