SCORPIONS Tabs, send me an angel
Search tabs by artist/band name or song title:  

SCORPIONS Tabs - send me an angel Guitar Tablatures, Chords






send me an angel tabs @ 911Tabs
#----------------------------------PLEASE NOTE----------------------------------#
# This file is the author's own work and represents their interpretation of the #
# song. You may only use this file for private study, scholarship, or research. #
#-------------------------------------------------------------------------------#

Band:  Scorpions
Album: Crazy World
Song:  Send me angel

Copyright (c)  Mercury  1990
Version 1.0 - 31/10/2006

Transcribed By: Konstantin Morozov
Email:          snoiprocks@yahoo.com


.  - palm mute           /  - slide up to
\  - slide down to       ~  - vibrato
h  - hammer on           b  - Bend
p  - pull off            Suffixes for bend
t  - tap                 f  - full bend    h - half bend
ph - pinched harmonic    q  - quarter bend t - tap bend
*  - see comment         ^  - Hold bend    r release bend
x  - Stuccatto           ~  - vibrato bend
,  - slight palm mute    () - ghost note, sustained note
"  - tremolo note        <> - Trill

Tuning E A D G B E
Intro:
e-------------------------------------------------------------------------
-----5-------5-------3-------3-------5-------5--------------3-------------
-------4-------4-------2-------2-------4-------4--------2-------2---------
--2------2-------2-------4-------4-2-----2-------2----4---4---4---4-------
-----------3-------5-------2---------------3--------5---------------------
E-------------------------------------------------------------------------

1-st Verse:
e-------------------------------------------------------------------------
----5-------5-------5-------5-------5-------5-------------3---------------
------4-------4-------4-------4-------4-------4-------2-------2-----------
--2-----2-------2-------0-------0-2-----2-------2---4---4---4---4---------
----------3-------2-----------------------3-------5-----------------------
E-------------------------3-----------------------------------------------

1-st Chorus:
e-------------------------------------------------------------------------
----7-----7-----7---5-----5-----5---5-----5-----5----7-------9------------
------6-----6---------4-----4---------6-----6----------7-------9----------
--4-----4-----4---2-----2-----2---------6-----6----------7-------9--------
----------------------------------4----------------5-------7--------------
E-------------------------------------------------------------------------

2-nd Verse:
e-------------------------------------------------------------------------
----7-------7-------7-------7-------7-------7-------------5---------------
------6-------6-------6-------6-------6-------6-------4-------4-----------
--4-----4-------4-------0-------0-4-----4-------4---6---6---6---6---------
----------5-------4-----------------------5-------7-----------------------
E-------------------------5-----------------------------------------------

2-nd Chorus:
e-------------------------------------------------------------------------
----9-----9-----9---7-----7-----7---7-----7-----7---9-------11------------
------8-----8---------6-----6---------8-----8---------9--------11---------
--6-----6-----6---4-----4-----4---------8-----8---------9---------11------
----------------------------------6---------------7-------9---------------
E-------------------------------------------------------------------------





SCORPIONS Chords - send me an angel Tabs, Tab for Guitar

Site contains SCORPIONS tabs (tablatures), chords, song lyrics of popular songs, compilations.
You may find send me an angel - SCORPIONS tab, lyric, free tabs for guitars and basses here.


© 2002 TabPower.com All tabs are the author's own work and represents their interpretation of the SCORPIONS song.
You may only use this SCORPIONS tab for private study, scholarship, or research.
send me an angel Tab by SCORPIONS Tabs/Chords/Tablatures
Online Guitar Lessons