AVENGED SEVENFOLD Tabs, unholy confessions
Search tabs by artist/band name or song title:  

AVENGED SEVENFOLD Tabs - unholy confessions Guitar Tablatures, Chords






unholy confessions tabs @ 911Tabs
#----------------------------------PLEASE NOTE----------------------------------#
# This file is the author's own work and represents their interpretation of the #
# song. You may only use this file for private study, scholarship, or research. #
#-------------------------------------------------------------------------------#

Intro
|--------------------------------------------------------------------------|
|--------------------------------------------------------------------------|
|--------------------------------------------------------------------------|
|-0-0----------------------------------------------------------------------|
|-0-0--5---7---8---10---8---7h8p7-----------10-0-8-0-7~-------7-0-8-0------|
|-0-0----0---0---0----0---0-------10~--8-8---------------7-7----------10~--|
PM- -    -   -   -    -   -            - -               - -


|-------------------------------------------------|
|-------------------------------------------------|
|-------------------------------------------------|
|-0-0----------------------------------8-8x--7-7x-|
|-0-0--5---7---8---10---8---7h8p7------8-8x--7-7x-|
|-0-0----0---0---0----0---0-------10~--8-8x--7-7x-|
PM- -    -   -   -    -   -



Harmonized part - Guitar 1
|--------------------------------------------------------------------------|
|--------------------------------------------------------------------------|
|--------------------------------------------------------------------------|
|-0-0----------------------------------------------------------------------|
|-0-0--5---7---8---10---8---7h8p7-----------10-0-8-0-7~-------7-0-8-0------|
|-0-0----0---0---0----0---0-------10~--8-8---------------7-7----------10~--|
PM- -    -   -   -    -   -            - -               - -


Harmonized part - Guitar 2
|---------------------------------------------------------------------|
|---------------------------------------------------------------------|
|---------------------------------------------------------------------|
|-0-0--3---5---7---8---7---5h7p5---------8---7---5~-------5---7-------|
|-0-0----------------------------7~--------0---0------------0---0-7~--|
|-0-0----0---0---0---0---0-----------8-8-------------7-7--------------|

DON'T WORRY... IT'S ALL CORRECT!





AVENGED SEVENFOLD Chords - unholy confessions Tabs, Tab for Guitar

Site contains AVENGED SEVENFOLD tabs (tablatures), chords, song lyrics of popular songs, compilations.
You may find unholy confessions - AVENGED SEVENFOLD tab, lyric, free tabs for guitars and basses here.


© 2002 TabPower.com All tabs are the author's own work and represents their interpretation of the AVENGED SEVENFOLD song.
You may only use this AVENGED SEVENFOLD tab for private study, scholarship, or research.
unholy confessions Tab by AVENGED SEVENFOLD Tabs/Chords/Tablatures
Online Guitar Lessons