EAGLES Tabs, hotel california
Search tabs by artist/band name or song title:  

EAGLES Tabs - hotel california Guitar Tablatures, Chords






hotel california tabs @ 911Tabs
#----------------------------------PLEASE NOTE----------------------------------#
# This file is the author's own work and represents their interpretation of the #
# song. You may only use this file for private study, scholarship, or research. #
#-------------------------------------------------------------------------------#

The last one i sent i just corrected.
This is another basic version of hotel california that sounds pretty good on acoustic guitar.


Chords
      EADGBE
     --------
Bm    224432
F#    244322
A     x02220
E     022100
G     320002
D     xx0323
Em    022000

Intro/verse

    Bm              F#               A              E   
e)------------2---0------------------------------0-------------------
B)--------------3---2--------------------------2---------------------
G)------4-----------------------3--------2---------------------1-----
D)----4---4---------------4-------4----2---2-------------2-----------
A)--2-------2-----------4---4--------0-------0---------2---2---------
E)--------------------2-------2----------------------0-------0-------

    G               D                Em             F#
e)--------------------2-----------2----------------------------------------
B)----------------0/3-------3------------------0---------------------------
G)------------0-----------2---2------------------0------------3------------
D)------0---------------0-------0--------2--------------4------------------
A)----2---2----------------------------2---2----------4---4----------------
E)--3-------3------------------------0-------0------2-------2--------------
Just repeat that for the verse.

 Bm                        F#
 On a dark desert highway, cool wind in my hair
 A                     E
 Warm smell of colitas rising up through the air
 G                         D
 Up ahead in the distance, I saw a shimmering light
 Em
 My head grew heavy and my sight grew dim
 F#
 I had to stop for the night

 Bm                               F#
 There she stood in the doorway;  I heard the mission bell
 A                                          E
 And I was thinking to myself this could be heaven or this could be hell
 G                        D
 Then she lit up a candle, and she showed me the way
 Em                                   F#
 There were voices down the corridor, I thought I heard them say

 
 Chorus : 
 G                        D
 Welcome to the Hotel California.
        Em                   Bm7
 Such a lovely place, such a lovely face
 G                               D
 Plenty of room at the Hotel California
 Em                                      F#
 Any time of year (any time of year) you can find it here

by Serge.





EAGLES Chords - hotel california Tabs, Tab for Guitar

Site contains EAGLES tabs (tablatures), chords, song lyrics of popular songs, compilations.
You may find hotel california - EAGLES tab, lyric, free tabs for guitars and basses here.


© 2002 TabPower.com All tabs are the author's own work and represents their interpretation of the EAGLES song.
You may only use this EAGLES tab for private study, scholarship, or research.
hotel california Tab by EAGLES Tabs/Chords/Tablatures
Online Guitar Lessons