LED ZEPPELIN Tabs, kashmir7
Search tabs by artist/band name or song title:  

LED ZEPPELIN Tabs - kashmir7 Guitar Tablatures, Chords






kashmir7 tabs @ 911Tabs
#----------------------------------PLEASE NOTE----------------------------------#
# This file is the author's own work and represents their interpretation of the #
# song. You may only use this file for private study, scholarship, or research. #
#-------------------------------------------------------------------------------#

BAND:LED ZEPPELIN
SONG:KASHMIR
CD:PHYSICAL GRAFFITI
TABED BY:SCOTT
EMAIL:BIGSCOTT391@AOL.COM

THE D'S AND U'S DOWN AND UP STROKES
E-------------------------------------
B-------------------------------------
G-----2-----------x-------2----------     ONLY PLAYED ONCE 
D-----0-----------x-------0---------      FOR THE WHOLE SONG                     
A-----5-----------x-------5----------     THE REST PLAYED                       
E----------------------------------0---      THROUGHTOUT
      d u d      d       d u d 

E---------------------------------
B----------------------------------
G-----3--------x--------3---------
D-----0--------x--------0---------
A-----5--------x--------5---------
E-----------------------------0----
    d u d       d       d u d


E---------------------------------
B---------------------------------
G-----4-------x------4-----------
D-----0-------x------0-----------
A-----5-------x------5------------
E------------------------------0---
  d u d        d       d u d

E----------------------------------
B----------------------------------
G-----5-------x-----5-------------
D-----0-------x-----0--------------
A-----5-------x-----5-------------
E--------------------------------0---
    d u d       d     d u d 

E-------------------------------------
B------------------------------------
G-----7-------x-------2------------
D-----0-------x-------0-----------
A-----5-------x-------5-----------
E-----------------------------0----
   d u d     d         d u d 

THAT IS THE WHOLE SONG OVER AND OVER.
IF U PUT IT ON DISTORTION YOU 
CAN PLAY THE P.DIDDY VERSON WITH JIMMY 
PAGE FOR THE GODZILLA SOUNDTRACK!






LED ZEPPELIN Chords - kashmir7 Tabs, Tab for Guitar

Site contains LED ZEPPELIN tabs (tablatures), chords, song lyrics of popular songs, compilations.
You may find kashmir7 - LED ZEPPELIN tab, lyric, free tabs for guitars and basses here.


© 2002 TabPower.com All tabs are the author's own work and represents their interpretation of the LED ZEPPELIN song.
You may only use this LED ZEPPELIN tab for private study, scholarship, or research.
kashmir7 Tab by LED ZEPPELIN Tabs/Chords/Tablatures
Online Guitar Lessons