LED ZEPPELIN Tabs, dazed and confused2
Search tabs by artist/band name or song title:  

LED ZEPPELIN Tabs - dazed and confused2 Guitar Tablatures, Chords






dazed and confused2 tabs @ 911Tabs
#----------------------------------PLEASE NOTE----------------------------------#
# This file is the author's own work and represents their interpretation of the #
# song. You may only use this file for private study, scholarship, or research. #
#-------------------------------------------------------------------------------#

  Main Riff
e|--------------------------------------------
B|--------------------------------------------
G|--------------------------------------------
D|--------------------------------------------
A|--0/10-9-8-7--0/5-4-3-2---------------------
E|--------------------------------------------

  Then hit the distortion
e|--------------------------------------------
B|--------------------------------------------
G|--4-4-4------2h4----------------------------
D|--4-4-4--2h4-----4p2------------------------
A|--2-2-2-------------------------------------
E|--------------------------------------------






LED ZEPPELIN Chords - dazed and confused2 Tabs, Tab for Guitar

Site contains LED ZEPPELIN tabs (tablatures), chords, song lyrics of popular songs, compilations.
You may find dazed and confused2 - LED ZEPPELIN tab, lyric, free tabs for guitars and basses here.


© 2002 TabPower.com All tabs are the author's own work and represents their interpretation of the LED ZEPPELIN song.
You may only use this LED ZEPPELIN tab for private study, scholarship, or research.
dazed and confused2 Tab by LED ZEPPELIN Tabs/Chords/Tablatures
Online Guitar Lessons