ROLLING STONES Tabs, brown sugar4
Search tabs by artist/band name or song title:  

ROLLING STONES Tabs - brown sugar4 Guitar Tablatures, Chords






brown sugar4 tabs @ 911Tabs
#----------------------------------PLEASE NOTE----------------------------------#
# This file is the author's own work and represents their interpretation of the #
# song. You may only use this file for private study, scholarship, or research. #
#-------------------------------------------------------------------------------#

<h5>
<pre>
 
brown sugar

chords
Eb     C      Ab      Bb
6      8      4       6
8      8      4       6
8      9      5       7
8      10     6       8
6      10     6       8
#      8      4       6      

intro
(2)guitar
 C  G  C     F        C
-8--7------------------------ 
-8--8--5--5--6-6------5------
-9--7--5--5--5-5------5------
-------5--5--7-7-----(3)-(5)- 
--------------(3)-(5)--------
-----------------------------

Eb     C     Ab   Bb      C      Eb

verses
riff 1        riff 2              riff 3
C             F
------------- ------------------- -------------
-5-----5----- -10-------10------- -3-----3-----
-5-----5----- -10-------10------- -3-----3-----
---7-5---7-5- ----12-10----12-10- ---5-3---5-3-
------------- ------------------- -------------
------------- ------------------- -------------

  C   
(1)gold coast slave ship bound for cotton fields
(2)drums beating cold english blood runs hot
(3)i bet your mama was a tent show queen

F
sold in the market down in new orleans
lady of the house wondering when its gonna stop
and all of her boyfriend were sweet sixteen

C
scarred old slaver know hes doing alright
house boy knows that hes doing alright
im no schoolboy but i know what i like

Bb                             C
hear him whip the women just   around midnight
you should have heard him just around midnight
you should have heard me just  around midnight

chorus
 G                        C
--------------------------------------------------
--------------5-----------5-----5-5--5--5-----5-5-
--------------5-----5-----5-----5-5--5--5-----5-5-
----------7s9-5-8-5---8-5---7-5-----------7-5-----
--------5-----------------------------------------
-3--5s7-------------------------------------------

G
               brown sugar how come you taste so good
               brown sugar just like a young girl should
                           (just like a black girl should)

outro
 G            C
-3---3------- -8---8--------- -------
-3---3-5-3--- -8---8-10-8---- -11----
-------5-3--- -------10-8---- -10b12-
-----------5- ------------10- -------
------------- --------------- -------
------------- --------------- -------





  


</pre>
</h5>





ROLLING STONES Chords - brown sugar4 Tabs, Tab for Guitar

Site contains ROLLING STONES tabs (tablatures), chords, song lyrics of popular songs, compilations.
You may find brown sugar4 - ROLLING STONES tab, lyric, free tabs for guitars and basses here.


© 2002 TabPower.com All tabs are the author's own work and represents their interpretation of the ROLLING STONES song.
You may only use this ROLLING STONES tab for private study, scholarship, or research.
brown sugar4 Tab by ROLLING STONES Tabs/Chords/Tablatures
Online Guitar Lessons