QUEEN Tabs, bohemian rhapsody2
Search tabs by artist/band name or song title:  

QUEEN Tabs - bohemian rhapsody2 Guitar Tablatures, Chords






bohemian rhapsody2 tabs @ 911Tabs
#----------------------------------PLEASE NOTE----------------------------------#
# This file is the author's own work and represents their interpretation of the #
# song. You may only use this file for private study, scholarship, or research. #
#-------------------------------------------------------------------------------#

"Bohemian Rhapsody"
Performed by Queen
Tabbed by Brandon Williams
bwillia1074@cs.com

Note: this is not right!  It sounds pretty damn close, though.  This is also not the complete song so you're going to have to get the rest off of the other tab.  A really great Queen tab website is: http://www.pemcom.demon.co.uk/queen/tab/.  There, they have another guitar tab of this song and they have the bass and drum tab, also.  It's not my website but it is a good one.

All of the major chords in the E and A form basically follow this pattern:

Form A:       Form E:
|---------3-1-|-------------|
|-------3-----|---------5-3-|
|-----3-------|-------4-----|
|---3---------|-----5-------|
|-1-----------|---5---------|
|-------------|-3-----------|

I think that the  verses go something like this (the spacing sucks as you can probably tell):
 Bb           Gminor                                  Cminor        Cminor7
|---------3-1--------------------------------------------------------------------
|-------3-----------------3---------------------------------4-------------4------
|-----3---------------3-----------------------------------5---5---5-----3---3----
|---3-------------5---------5---------------------------5-------5-----5------5---
|-1-------------5-------5-----------------------------3-------------3----------3-
|-------------3-----3------------------------------------------------------------
Mama just killed a man    put a gun against his head, pulled my trigger now he's dead

Bb           Gminor                 Cminor        G
---------3-1--------------------------------------------------
-------3-----------------3----------------4---------------5-3-
-----3---------------3------------------5---5-----------4-----
---3-------------5---------5----------5-------5-------5-------
-1-------------5-------5------------3-----------3---5---------
-------------3-----3------------------------------3-----------
Mama, life had just begun but now I've gone and thrown it all away

 Eb          Bb          C                              Eb 
---------8-6----------------------------------------------------8-6------------------
-------8-----------3-----------1------------------------------8----------------------
-----8-----------3---3-------0---0--------------------------8------------------------
---8-----------3-------3---2-------2----------------------8--------------------------
-6-----------1-----------3------------------------------6----------------------------
-------------------------------------------------------------------------------------
Mama,     ohh  Didn't mean to make you cry, if I'm not back again this time tomorrow

 Bb                 C                            Bb
---------3-1---------------------------------------------3-1---------3-1---------3-1-
-------3------------------1----------------------------3-----------3-----------3-----
-----3------------------0----------------------------3-----------3-----------3-------
---3------------------2----------------------------3-----------3-----------3---------
-1------------------3----------------------------1-----------1-----------1-----------
-------------------------------------------------------------------------------------
carry on, carry on, as if nothing really matters 

 Bb           Gminor                                  Cminor        Cminor7
---------3-1--------------------------------------------------------------------
-------3-----------------3---------------------------------4-------------4------
-----3---------------3-----------------------------------5---5---5-----3---3----
---3-------------5---------5---------------------------5-------5-----5------5---
-1-------------5-------5-----------------------------3-------------3----------3-
-------------3-----3------------------------------------------------------------
Too late, my time has come    Sent shivers down my spine, body's aching all the time

Bb           Gminor                 Cminor        G
---------3-1------------------------------------------------------------------------------
-------3-----------------3----------------4---------------5-3-----------------------------
-----3---------------3------------------5---5-----------4---------------------------------
---3-------------5---------5----------5-------5-------5-----------------------------------
-1-------------5-------5------------3-----------3---5----------------------(w/distortion)-
-------------3-----3------------------------------3---------------------------5-4-3~------
Goodbye, everybody, I've got to go Gotta leave you all behind and face the truth

 Eb          Bb          C                               
---------8-6----------------------------------------------------------------------------------------------|
-------8-----------3------------------------------------1-------------------------------------------------|
-----8-----------3---3--------------------------------0---0-----------------------------------------------|
---8-----------3-------3----------------------------2-------2------(solo((which is in the other version))-|
-6-----------1------------------------------------3-------------------------------------------------------|
----------------------------------------------------------------------------------------------------------|
Mama,     ohh  I don't wanna die, I sometimes wish I'd never been born at all

I know that it is not correct but it'll give you a good start.  So please, no one complain about it.  If you have the correct version or just want to send (good) commenets to me, e-mail to the address at the top of the page.





QUEEN Chords - bohemian rhapsody2 Tabs, Tab for Guitar

Site contains QUEEN tabs (tablatures), chords, song lyrics of popular songs, compilations.
You may find bohemian rhapsody2 - QUEEN tab, lyric, free tabs for guitars and basses here.


© 2002 TabPower.com All tabs are the author's own work and represents their interpretation of the QUEEN song.
You may only use this QUEEN tab for private study, scholarship, or research.
bohemian rhapsody2 Tab by QUEEN Tabs/Chords/Tablatures
Online Guitar Lessons