RED HOT CHILI PEPPERS Tabs, by the way intro2
Search tabs by artist/band name or song title:  

RED HOT CHILI PEPPERS Tabs - by the way intro2 Guitar Tablatures, Chords






by the way intro2 tabs @ 911Tabs
#----------------------------------PLEASE NOTE----------------------------------#
# This file is the author's own work and represents their interpretation of the #
# song. You may only use this file for private study, scholarship, or research. #
#-------------------------------------------------------------------------------#

Author/Artist: Red Hot Chili Peppers
Title: By The Way - Intro
Album: By The Way
Transcribed by: Richard Armstrong
Email: Hydromaniac@hotmail.com

Just the intro this time - check out my tabs of other songs of this amazing album.

e|--------------------------------------------------------------------------------------- 
B|--------------------------------------------------------------------------------------- 
G|---------------------------------------------------------------------------------------
D|-10-10-10-10-10-10-10-10--10-10-10-10-10-10-10-10--------------------------------------
A|--8--8--8--8--8--8--8--8---7--7--7--7--7--7--7--7--7-7-7-7-7-7-7-7-7-7-7-7-7-7-7-7-----
E|---------------------------------------------------5-5-5-5-5-5-5-5-5-5-5-5-5-5-5-5-----

e|--------------------------------------------------------------------------------------- 
B|--------------------------------------------------------------------------------------- 
G|----------------------------------------------------------------------------9-9-7-7----
D|-10-10-10-10-10-10-10-10--10-10-10-10-10-10-10-10--------------------------------------
A|--8--8--8--8--8--8--8--8---7--7--7--7--7--7--7--7--7-7-7-7-7-7-7-7-7-7-7-7-------------
E|---------------------------------------------------5-5-5-5-5-5-5-5-5-5-5-5-------------
End





RED HOT CHILI PEPPERS Chords - by the way intro2 Tabs, Tab for Guitar

Site contains RED HOT CHILI PEPPERS tabs (tablatures), chords, song lyrics of popular songs, compilations.
You may find by the way intro2 - RED HOT CHILI PEPPERS tab, lyric, free tabs for guitars and basses here.


© 2002 TabPower.com All tabs are the author's own work and represents their interpretation of the RED HOT CHILI PEPPERS song.
You may only use this RED HOT CHILI PEPPERS tab for private study, scholarship, or research.
by the way intro2 Tab by RED HOT CHILI PEPPERS Tabs/Chords/Tablatures
Online Guitar Lessons