GREEN DAY Tabs, basket case3
Search tabs by artist/band name or song title:  

GREEN DAY Tabs - basket case3 Guitar Tablatures, Chords






basket case3 tabs @ 911Tabs
#----------------------------------PLEASE NOTE----------------------------------#
# This file is the author's own work and represents their interpretation of the #
# song. You may only use this file for private study, scholarship, or research. #
#-------------------------------------------------------------------------------#

Song:Basket Case
Artists: Greenday
Tabbed by: Adam Cajkler

this is a very simple song which is fun to play.

Intro: Guitar only

Verse 1:                       Fill 1: Hammer on 
G[-----------------------]   [-797-]
D[-0---------------------]   [-----]
A[--3-2---------00000000-]   [-----]
E[------33333333---------]   [-----]

Verse 2: Chug this part             :Then no chugging
G[----------------]      [-------]  [-----0--0---------------------------------]
D[-0--------0-----]      [-----0-]  [-0000-42-----------------00000000-00000---]
A[---0-2------0-0-]      [---0---]  [-----------------00000000--------------232]
E[-------2-3------]  x2  [-3-----]  [---------33333333-------------------------]

[-------------------------0000-------------------------------]
[-----------------00000000----3333---------------------------]
[---------00000000-----------------22222222--------000000000-]
[-33333333---------------------------------33333333----------]

Fill 2: normal
G[------------]         [------------------------------]
D[-0----------]         [------------------------------]
A[--00-2-2-00-]         [-------------------00000000-0-]
E[------------]     x4  [-33333333-33333333------------]

Verse 3: verse 1

Fill 3: normal    *let ring for two notes
G[------12--12-11----12--12-11-----------------]
D[-12-12----------9-9--------------000---------]
A[------------------------------------0*0000000]
E[-----------------------------3-33------------]   x4

Thats it, apart from the fills it's simple. Have fun playing this and
if your doing your music exams in school this is a good one to play.







GREEN DAY Chords - basket case3 Tabs, Tab for Guitar

Site contains GREEN DAY tabs (tablatures), chords, song lyrics of popular songs, compilations.
You may find basket case3 - GREEN DAY tab, lyric, free tabs for guitars and basses here.


© 2002 TabPower.com All tabs are the author's own work and represents their interpretation of the GREEN DAY song.
You may only use this GREEN DAY tab for private study, scholarship, or research.
basket case3 Tab by GREEN DAY Tabs/Chords/Tablatures
Online Guitar Lessons