RED HOT CHILI PEPPERS Tabs, by the way5
Search tabs by artist/band name or song title:  

RED HOT CHILI PEPPERS Tabs - by the way5 Guitar Tablatures, Chords






by the way5 tabs @ 911Tabs
#----------------------------------PLEASE NOTE----------------------------------#
# This file is the author's own work and represents their interpretation of the #
# song. You may only use this file for private study, scholarship, or research. #
#-------------------------------------------------------------------------------#


Title: By The Way
Band: Red Hot Chili Peppers
Tab by: Svante Berg

I think that this is a little more accurate...

Drop D tuning            

Intro

G--17-17-17-17-17-17-17-17-17-17-17-17-17-17-17-17-------
D--15-15-15-15-15-15-15-15-14-14-14-14-14-14-14-14-------
A--------------------------------------------------------
E--------------------------------------------------------

G--9-9-9-9-9-9-9-9-9-9-9-9-9-9-9-9-----
D--7-7-7-7-7-7-7-7-7-7-7-7-7-7-7-7-----
A--------------------------------------
E--------------------------------------

Fills

G|-9-9-7-7|                        G|-9/17-|

Verse

G--------------------------------------------------------
D-------------3------------------------------------------
A-------0-3-5---0-3-5------------------------------------
E--0-0----------------3-5--------------------------------

Every 4th time 

G----------------------------------------------------------
D-------------3-3------------------------------------------
A-------0-3-5-----5-5--------------------------------------
E--0-0-----------------------------------------------------


Chorus 

G-----------------------------------------------------------
D--3333333/10-10-10-10--12-12-12-12-12-12-12-12-12-12-10----
A--------------------------------------------------------12-
E-----------------------------------------------------------

G----------------------------------------------
D--3333333/10-10-10-10-7777777777777--8-8---
A----------------------------------------------
E----------------------------------------------

No bass in Outro

Corrections? Comments? www.cornholio.mail.telia.com





RED HOT CHILI PEPPERS Chords - by the way5 Tabs, Tab for Guitar

Site contains RED HOT CHILI PEPPERS tabs (tablatures), chords, song lyrics of popular songs, compilations.
You may find by the way5 - RED HOT CHILI PEPPERS tab, lyric, free tabs for guitars and basses here.


© 2002 TabPower.com All tabs are the author's own work and represents their interpretation of the RED HOT CHILI PEPPERS song.
You may only use this RED HOT CHILI PEPPERS tab for private study, scholarship, or research.
by the way5 Tab by RED HOT CHILI PEPPERS Tabs/Chords/Tablatures
Online Guitar Lessons