EAGLES Tabs, hotel california2
Search tabs by artist/band name or song title:  

EAGLES Tabs - hotel california2 Guitar Tablatures, Chords






hotel california2 tabs @ 911Tabs
#----------------------------------PLEASE NOTE----------------------------------#
# This file is the author's own work and represents their interpretation of the #
# song. You may only use this file for private study, scholarship, or research. #
#-------------------------------------------------------------------------------#

Hotel California - Eagles

I am not saying that this is right but it sounds good to me. 
This is the way I picked it out and I have not seen a tab that looks 
similar so I thought I would post. Let me just say that I have only been 
playing for a few months so there will most likely be mistakes. 
All responses are welcome at df_spawn@hotmail.com

Chords Used  	Bm 	F#	A	E	G	D	E	F#
		e	7	6	5	4	3	2	0	2
		b	7	7	5	5	3	3	0	2
		g	7	6	6	4	4	2	1	3
		d	9	8	7	6	5	4	2	4
		a	9	9	7	7	5	0	2	4
		E	7	x	5	0	3	0	0	2
			


  Bm					       F#			
|-----------------7----------------|------------------6-----------|
|--------7-----7-----7----7--------|---------7-----7-----7--------|
|-----7-----7----------7-----7-----|------6-----6-----------6-----|
|--9----------------------------9--|---8-----------------------8--|
|----------------------------------|------------------------------|
|----------------------------------|------------------------------|



  A					       E			
|-----------------5----------------|------------------4-----------|
|--------5-----5-----5----5--------|---------5-----5-----5--------|
|-----6-----6----------6-----6-----|------4-----4-----------4-----|
|--7----------------------------7--|---6-----------------------6--|
|----------------------------------|------------------------------|
|----------------------------------|------------------------------|



  G					       D			
|-----------------3----------------|------------------2-----------|
|--------3-----3-----3----3--------|---------3-----3-----3--------|
|-----4-----4----------4-----4-----|------2-----2-----------2-----|
|--5----------------------------5--|---4-----------------------4--|
|----------------------------------|------------------------------|
|----------------------------------|------------------------------|



  E					       F#			
|-----------------------------------|-----------------------------|
|-----------------------------------|-----------------------------|
|-----------------1-----------------|------------------3----------|
|--------2-----2-----2-----2--------|---------4-----4-------------|
|-----2-----2-----------2-----2-----|------4-----4----------------|
|--0-----------------------------0--|---2-------------------------|










EAGLES Chords - hotel california2 Tabs, Tab for Guitar

Site contains EAGLES tabs (tablatures), chords, song lyrics of popular songs, compilations.
You may find hotel california2 - EAGLES tab, lyric, free tabs for guitars and basses here.


© 2002 TabPower.com All tabs are the author's own work and represents their interpretation of the EAGLES song.
You may only use this EAGLES tab for private study, scholarship, or research.
hotel california2 Tab by EAGLES Tabs/Chords/Tablatures
Online Guitar Lessons