BLINK 182 Tabs, aliens exist6
Search tabs by artist/band name or song title:  

BLINK 182 Tabs - aliens exist6 Guitar Tablatures, Chords






aliens exist6 tabs @ 911Tabs
#----------------------------------PLEASE NOTE----------------------------------#
# This file is the author's own work and represents their interpretation of the #
# song. You may only use this file for private study, scholarship, or research. #
#-------------------------------------------------------------------------------#

Aight Hey this is the right way for Daniel and for all, not like all the other bad tabs


 e--------------------------------------------------------
 b--------------------------------------------------------
 g-----4-----------------------------------------4--------
 d-----4-----------------------------------------4--------
 a-----2-----------------------------------------2--------
 e--------------------------------------------------------
    16x(pm)up&down strokes fairly quick then  ^ open and let ring

                                                Hey mom....

 then this little riff

 -----------------------------------------------------(fig 1)
 -----------------------------------------------------
 -4-4-4-4-4-4-4---------------------------------------
 -4-4-4-4-4-4-4--2-2-2-2-2--6-6-6-6-6-6--2-2-2-2-2------- 2x
 -2-2-2-2-2-2-2--2-2-2-2-2--6-6-6-6-6-6--2-2-2-2-2-------
 ----------------0-0-0-0-0--4-4-4-4-4-4--0-0-0-0-0-------



 verse(pm)
 ---------------------------------------------------------------(fig 2)
 ---------------------------------------------------------------
 4-4-4-4-4-4-4-4------------------------------------------------
 4-4-4-4-4-4-4-4--4-4-4-4-4-4-4-4--6-6-6-6-6-6-6-6--2-2-2-2-2-2-2-2
 2-2-2-2-2-2-2-2--4-4-4-4-4-4-4-4--6-6-6-6-6-6-6-6--2-2-2-2-2-2-2-2
 -----------------2-2-2-2-2-2-2-2--4-4-4-4-4-4-4-4--0-0-0-0-0-0-0-0
 what if people........
 
 chorus
 -----------------------------------
 -----------------------------------
 4-4-4-4-4-4-4-4--------------------
 4-4-4-4-4-4-4-4--4-4-4-4-4-4-4-4--- 2x
 2-2-2-2-2-2-2-2--4-4-4-4-4-4-4-4---
 -----------------2-2-2-2-2-2-2-2---
 up, all night long and theres something very wrong

 chorus(part2)
 -----------------------------------------------------
 -----------------------------------------------------
 ----------------------------------------------------- (pm)
 -1-1---1-1---1-1---1-1---2-2---2-2---2-2---2-2-------
 -----2-----2-----2-----2-----2-----2-----2-----2----- 2x
 -----------------------------------------------------
 and i know it must be late......

 chorus (part3)
 -----------------------------------------------------
 -----------------------------------------------------
 ---------4-------------------------------------------
 -4---2---4---4---2-----------------------------------
 -4---2---2---4---2-----------------------------------
 -2---0-------2---0-----------------------------------
 im not like you guys  im not like you

 then this little riff
 -----------------------------------------------------
 -----------------------------------------------------
 -4-4-4-4-4-4-4---------------------------------------
 -4-4-4-4-4-4-4--2-2-2-2-2--6-6-6-6-6-6--2-2-2-2-2------- 2x
 -2-2-2-2-2-2-2--2-2-2-2-2--6-6-6-6-6-6--2-2-2-2-2-------
 ----------------0-0-0-0-0--4-4-4-4-4-4--0-0-0-0-0-------
 

 verse(pm)
 ---------------------------------------------------------------(fig 2)
 ---------------------------------------------------------------
 4-4-4-4-4-4-4-4------------------------------------------------
 4-4-4-4-4-4-4-4--4-4-4-4-4-4-4-4--6-6-6-6-6-6-6-6--2-2-2-2-2-2-2-2
 2-2-2-2-2-2-2-2--4-4-4-4-4-4-4-4--6-6-6-6-6-6-6-6--2-2-2-2-2-2-2-2
 -----------------2-2-2-2-2-2-2-2--4-4-4-4-4-4-4-4--0-0-0-0-0-0-0-0
 I am still a skeptic yes u know me......

 --------------------------------------------------
 --------------------------------------------------
 -4-4-4-4-4-4-4-4-4-4-4-4-4-4-4-4-4-4-4-4-4-4-4-4--
 -------------------------------------------------- 64x(total)
 -2-2-2-2-2-2-2-2-2-2-2-2-2-2-2-2-2-2-2-2-2-2-2-2--
 --------------------------------------------------
 but after this part is played 32x, guitar 2 comes in with:


 -----------------------------------------------------
 -----------------------------------------------------
 --8---6---9---8---6----------------------------------
 -----------------------------------------------------
 --6---4---7---6---4----------------------------------
 ----------------------------------------------------- 
   8x  8x  8x  4x  4x
 
 part just after the octive solo 
 ------------------------------------------
 ------------------------------------------
 ----------------4-------------------------
 -6----4----2----2----4--------------------
 -6----4----2----2----4--------------------
 -4----2----0---------2--------------------
  8x   8x   8x   4x   4x
 Dark and scary, ordinary, explanation, information.....

 chorus
 -----------------------------------
 -----------------------------------
 4-4-4-4-4-4-4-4--------------------
 4-4-4-4-4-4-4-4--4-4-4-4-4-4-4-4--- 2x
 2-2-2-2-2-2-2-2--4-4-4-4-4-4-4-4---
 -----------------2-2-2-2-2-2-2-2---
 up, all night long and theres something very wrong

 chorus(part2)
 -----------------------------------------------------
 -----------------------------------------------------
 ----------------------------------------------------- (pm)
 -1-1---1-1---1-1---1-1---2-2---2-2---2-2---2-2-------
 -----2-----2-----2-----2-----2-----2-----2-----2----- 2x
 -----------------------------------------------------
 and i know it must be late......

 chorus (part3)
 -----------------------------------------------------
 -----------------------------------------------------
 ---------4-----------4-------------------------------
 -4---2---4---4---2---4-------------------------------
 -4---2---2---4---2---2-------------------------------
 -2---0-------2---0-----------------------------------
 im not like you guys  12 majestic lies



Although it is long, it's understandable and correct, 100%

Peace out 
T-Dawgg






BLINK 182 Chords - aliens exist6 Tabs, Tab for Guitar

Site contains BLINK 182 tabs (tablatures), chords, song lyrics of popular songs, compilations.
You may find aliens exist6 - BLINK 182 tab, lyric, free tabs for guitars and basses here.


© 2002 TabPower.com All tabs are the author's own work and represents their interpretation of the BLINK 182 song.
You may only use this BLINK 182 tab for private study, scholarship, or research.
aliens exist6 Tab by BLINK 182 Tabs/Chords/Tablatures
Online Guitar Lessons