RADIOHEAD Tabs, street spirit4
Search tabs by artist/band name or song title:  

RADIOHEAD Tabs - street spirit4 Guitar Tablatures, Chords






street spirit4 tabs @ 911Tabs
#----------------------------------PLEASE NOTE----------------------------------#
# This file is the author's own work and represents their interpretation of the #
# song. You may only use this file for private study, scholarship, or research. #
#-------------------------------------------------------------------------------#

Fecha 1 de octubre de 2001, 11:15 p.m.

Artist: Radiohead.
Song: Street spirit.
Album: The bends.
Tabulada por: Luis Sandoval, "LOES".

Esta canción es muy sencilla de tocar, porque es
muy repetitiva pero es muy buena y vale la pena 
tocarla. Se compone básicamente de estos 3 riff's.


Disfrutenla.

---------------------------------------------------|
riff-1

   Am
e------0-------0-------0-------------|
B----------3-------1-------0---------|
G--------2---2---2---2---2---2---2---|
D----2-------------------------2-----|
A--0---------------------------------|
E------------------------------------|


riff-2

   C
e------0-------0-------0-------------|
B----------3-------1-----0-----------|
G--------0---0---0---0-----0---0-----|
D----2-----------------------2-------|
A------------------------------------|
E--0---------------------------------|


riff-3

   C
e------0-------0-------0-------------|
B----------3-------1-----0-----------|
G--------0---0---0---0-----0---0-----|
D----2-----------------------2-------|
A--3---------------------------------|
E------------------------------------|

---------------------------------------------------|
LETRA

VERSO 1:

 Rows of houses all bearing down on me

 I can feel their blue hands touching me

 All this things in all positions

 All this things will one day swallow whole


CORO:

 And fade out again fade out.


VERSO 2:

 This machine will will not communicate

 These thoughts and the strain i am under
  
 Be a world child from a circle before we all go under.


CORO:

 And fade out again fade out again.


VERSO 3:

 Cracked eggs dead birds
 
 Sream as they fight for life

 I can feel death can see it's beady eyes

 All this things into frution

 All this things we'll one day swallow whole.


CORO:

 And fade out again and fade out again.


OUTRO:

 Immerse your soul in love.

 Immerse your soul in love.

---------------------------------------------------|

La canción esta compuesta de la siguiente forma:
HERE IS THE SONG:

INTRO:

 (riff-1)x4


VERSO 1:

 (riff-1)x4
 (riff-2)x2


 (riff-1)x2


CORO:

 riff-3
 riff-2
 (riff-1)x2
 riff-3
 riff-2


VERSO 2:

 (riff-1)x4
 (riff-2)x2


 (riff-1)x2


CORO:

 riff-3
 riff-2
 (riff-1)x2
 riff-3
 riff-2
 (riff-1)x2

 riff-3
 riff-2
 (riff-1)x2
 riff-3
 riff-2


VERSO 3:
 
 (riff-1)x4
 (riff-2)x2


 (riff-1)x2


CORO:

 riff-3
 riff-2
 (riff-1)x2
 riff-3
 riff-2
 (riff-1)x2

 riff-3
 riff-2
 (riff-1)x2
 riff-3
 riff-2
 (riff-1)x2

OUTRO:

 riff-3
 riff-2
 (riff-1)x2
 riff-3
 riff-2
 riff-1  (en este ulitmo riff disminuye la velocidad)

---------------------------------------------------|

Preguntas o comentarios sobre esta canción con LOES.
loes_char@hotmail.com





RADIOHEAD Chords - street spirit4 Tabs, Tab for Guitar

Site contains RADIOHEAD tabs (tablatures), chords, song lyrics of popular songs, compilations.
You may find street spirit4 - RADIOHEAD tab, lyric, free tabs for guitars and basses here.


© 2002 TabPower.com All tabs are the author's own work and represents their interpretation of the RADIOHEAD song.
You may only use this RADIOHEAD tab for private study, scholarship, or research.
street spirit4 Tab by RADIOHEAD Tabs/Chords/Tablatures
Online Guitar Lessons