GUNS N ROSES Tabs, dont cry3
Search tabs by artist/band name or song title:  

GUNS N ROSES Tabs - dont cry3 Guitar Tablatures, Chords






dont cry3 tabs @ 911Tabs
#----------------------------------PLEASE NOTE----------------------------------#
# This file is the author's own work and represents their interpretation of the #
# song. You may only use this file for private study, scholarship, or research. #
#-------------------------------------------------------------------------------#

DON'T CRY

by Guns 'N' Roses 
Album: Use Your Illusion (1991)



INTRO    (Am)            (Dm)             (G) 
      Rhy Fig
|---||----------0-------|---------1-------|---------3-------|
|---||o-----------1-----|-------3---3-----|-----------3-----|
|---||--------2-----2---|-----2-------1---|-------0-----0---|
|---||------2---------2-|-0-------------0-|-----0---------0-|
|---||o-0---------------|-----------------|---2-------------|
|-3-||------------------|-----------------|-3---------------|

               END Rhy Fig                     
|------------------------||--------0-------|--------1-------|
|-----------------------o||----------1-----|------3---3-----|
|-----------0-----0------||------2-----2---|----2-------2---|
|---------0-----0--------||----2---------2-|-0------------0-|
|-------3-----2-----3-2-o||-0--------------|----------------|
|------------------------||----------------|----------------|

                                                   END INTRO
|------------------------------|----------------------------||
|------------------------------|----------------------------||
|----------------0-------------|----------------------------||
|-------------0----------------|----------------------------||
|----------2-------------------|----------------------------||
|-------3--------------3--3--4-|-5--------------------------||


Rhy Fig through VERSE

There isn't much of this song I can transcribe since there isn't much I 
hear, but here is the solo. (NOT MEASURED)


 Fill                          SOLO
  ~~~~~~~~~~~~~~~~~~~~~~~~~~~~     full____      ~~~~~~~~~~
|----------------|-------------||---A------\---------------
|----------------|-------------||---|-------V--------------
|----------------|-------------||-7/-------(7)p5-7---------
|-7--------------|-------------||--------------------------
|----------------|-------------||--------------------------
|----------------|-------------||--------------------------


                    full__________|
      full_          A   ~~~~~~~~*   full_         full_______
|------A---\---------|----------------A---\---------A--------
|------|----V--------|---8------------|----V--------|---8--8-
|----7/----(7)-p-5-7/---------------7/----(7)-p-5-7/---------
|------------------------------------------------------------
|------------------------------------------------------------
|------------------------------------------------------------
                             * (vib. B-string only)

(full)____                   1/4_
|-------A-\-------------------A--\--------------------------------
|-------|--V------------------|---|-------------------------------
|-------7-(7)---5-------------|---|--------7-/-9---9-/-10---------
|-------------------7---5-----|---V-------------------------------
|---------------------------5/---(5)--3----5-/-7---7-/-8---8-h-10-
|-----------------------------------------------------------------


                                            2__
                                            A  \
|-------------------------------------------|---V--------------
|----------------------------------------13/--(13)-------------
|-------------------------------12-h-14-------------14---12----
|-------------10-h-12--12-/-14------------------------------14-
|----10-/-12---------------------------------------------------
|--------------------------------------------------------------

                                                         full____________
                                                          A      
|---------------------------------------------------------|---15--15--15-
|------------------------------------------------------15/---------------
|------------------------------------------------------------------------
|----13h14p12-13p12-10---12p10-------10----------------------------------
|------------------------------12p10-----12p10-12------------------------
|------------------------------------------------------------------------

      ___            full______________
(full)   \            A             A  \
|---------V-----------|---15-15-15--|---V---------------------------
|----15--(15)---13-15/--------------15-(15)-13------------13--13/15-
|----------------------------------------------14-----14------------
|-------------------------------------------------15----------------
|-------------------------------------------------------------------
|-------------------------------------------------------------------


                                 full              full_
                                  A                 A   \
|------------------------13-------|-----------------|----V------
|------------13-------------13-15/--------15-----15/----(15)-13-
|----16----------14---------------------------------------------
|--------17----------15-----------------------------------------
|---------------------------------------------------------------
|---------------------------------------------------------------

      full
       A                 full_              FILL 2
|------|-------5----------A---\------------||--------------------------||
|----8/-----------8--5----|----V-------X-X-||-8-(gradually bend and----||
|-----------------------7/----(7)--5---X-X-||-7--release both strings)-||
|------------------------------------------||--------------------------||
|------------------------------------------||--------------------------||
|------------------------------------------||--------------------------||








GUNS N ROSES Chords - dont cry3 Tabs, Tab for Guitar

Site contains GUNS N ROSES tabs (tablatures), chords, song lyrics of popular songs, compilations.
You may find dont cry3 - GUNS N ROSES tab, lyric, free tabs for guitars and basses here.


© 2002 TabPower.com All tabs are the author's own work and represents their interpretation of the GUNS N ROSES song.
You may only use this GUNS N ROSES tab for private study, scholarship, or research.
dont cry3 Tab by GUNS N ROSES Tabs/Chords/Tablatures
Online Guitar Lessons