QUEEN Tabs, bohemian rhapsody4
Search tabs by artist/band name or song title:  

QUEEN Tabs - bohemian rhapsody4 Guitar Tablatures, Chords






bohemian rhapsody4 tabs @ 911Tabs
#----------------------------------PLEASE NOTE----------------------------------#
# This file is the author's own work and represents their interpretation of the #
# song. You may only use this file for private study, scholarship, or research. #
#-------------------------------------------------------------------------------#

 	Intro: tabbedby rey pesquera

I didn't tab this myself, and I have no idea who did. But it is such a great song, It thought it best to share it all with you. It's hard, and does take a lot of practice, but the results are incredable. Enjoy

Myke
No, this is not merely the Brian May guitar solo transcription, but rather
a tab of a classical guitar version I heard on the radio. 
However, it includes all of May's guitar work, Mercury's vocal melody 
as well as the piano lines, so it will serve the needs of anyone who wants 
to learn the underlying elements of this masterpiece. I also threw in the 
lyrics for good measure. It has one of the best pseudo-classical outros 
I've ever heard.
(except for maybe Roundabout)

  / -5--5--5--5---5--5--5--5--5--5-----7----4--4--4--5--4-------
-7--7--7--7---7--7--7--7--7--7-----7----5--5--5--7--5-------
-9--9--9--9---9--8--8--8--9--8--6--8----7--7--7--7--7-------
------------------------------------------------------------
-------------------------------------------------------7--7-
------------------------------------------------------------

-5--5--5--5----------------------2------------------0-----------------------10----10-
-5--5--7--5--7--5----2--2--2--2----2-------2--2--3--2--2---10--------10--12----10----
-6--6--7--6--7--6----2--2--2--2------2--2--0--0--4--0--2---11-----11-----12----11----
-------------9--7----4--4--4--4---------4--------5---------12--12--------------------
-------------------------------------------0-----------------------------------------
---------------------2--------------------------------------------------------------------------------9--0--0--2-----0--2/4-||-6--6--5\--4--4--5\-||
-7--7--7--7---7-----0--------3--0------||-6--6--5\--4--4--5\-||
-7------------------1------------------||-7--7--6\--5--5--6\-||
-7-------------------------------------||--------------------||
---------------------------------------||--------------------||
-7------------------0------------------||--------------------||
 
-2--2--2--2--0h2p0---5---5--5--5--5--4---------
-3-------------------2---4--4--4--4-----3------
-2-------------------2---------------4--4--1/2-
-0-----------------------4--4--4--4------------
-------------3-----------3---------------------
-------------------------------------0---------

Verse:
   2x                                         2x
||-----------2-------||----------4----2---||----------0---------||----7-
||--------2------5---||-2-----2---------2-||--0h2--3-----3--2-0-||------
||-2----2----------2-||-----2-------2-----||-------0-----0----1-||-7h9--
||----2--------2-----||---4------4--------||------------------2-||------
||-0---------0-------||-------------------||-------2-----2------||------
||-------------------||-2-----------------||--------------------||------

tabbed by rey pesquera


 I didn't tab this myself, and I have no idea who did. But it is such a great song, It thought it best to share it all with you. It's hard, and does take a lot of practice, but the results are incredable. Enjoy

rey
No, this is not merely the Brian May guitar solo transcription, but rather
a tab of a classical guitar version I heard on the radio. 
However, it includes all of May's guitar work, Mercury's vocal melody 
as well as the piano lines, so it will serve the needs of anyone who wants 
to learn the underlying elements of this masterpiece. I also threw in the 
lyrics for good measure. It has one of the best pseudo-classical outros 
I've ever heard.
(except for maybe Roundabout)


Intro:

-5--5--5--5---5--5--5--5--5--5-----7----4--4--4--5--4-------
-7--7--7--7---7--7--7--7--7--7-----7----5--5--5--7--5-------
-9--9--9--9---9--8--8--8--9--8--6--8----7--7--7--7--7-------
------------------------------------------------------------
-------------------------------------------------------7--7-
------------------------------------------------------------

-5--5--5--5----------------------2------------------0-----------------------10----10-
-5--5--7--5--7--5----2--2--2--2----2-------2--2--3--2--2---10--------10--12----10----
-6--6--7--6--7--6----2--2--2--2------2--2--0--0--4--0--2---11-----11-----12----11----
-------------9--7----4--4--4--4---------4--------5---------12--12--------------------
-------------------------------------------0-----------------------------------------
---------------------2---------------------------------------------------------------
                                          2x
-----------------9--0--0--2-----0--2/4-||-6--6--5\--4--4--5\-||
-7--7--7--7---7-----0--------3--0------||-6--6--5\--4--4--5\-||
-7------------------1------------------||-7--7--6\--5--5--6\-||
-7-------------------------------------||--------------------||
---------------------------------------||--------------------||
-7------------------0------------------||--------------------||
 
-2--2--2--2--0h2p0---5---5--5--5--5--4---------
-3-------------------2---4--4--4--4-----3------
-2-------------------2---------------4--4--1/2-
-0-----------------------4--4--4--4------------
-------------3-----------3---------------------
-------------------------------------0---------

Verse:
   2x                                         2x
||-----------2-------||----------4----2---||----------0---------||----7-
||--------2------5---||-2-----2---------2-||--0h2--3-----3--2-0-||------
||-2----2----------2-||-----2-------2-----||-------0-----0----1-||-7h9--
||----2--------2-----||---4------4--------||------------------2-||------
||-0---------0-------||-------------------||-------2-----2------||------
||-------------------||-2-----------------||--------------------||------



-----------2---------------------4----2----0--5--5--5--5--5------------------0-
--------2------5---2h5--2-----2---------2-----7--------7----7--2h3p2-0----2--1-
-2----2---------------------2-------2---------7-----7-----7----2----------2--2-
----2--------2---2--------4------4-----------------------------4--------4------
-0---------0---------------------------------------------------0---------------
------------------------2---------------------7-----------6------------------0-


-----------2--2------------0---2h3----------2--
-0---------3-----3------------------3----3-----
-0---------2-------2----2--------------4-------
-2--4--2---0---------0----------------4--------
---------------------------4--------2--------2-
-3--2------------------------------------------
                                                             *
-3--2-2--0---0----------------2-2--3--3--5--3--2-----0h2--5------2-
-0-----------0----------5--5----------2-----------3------------2---
-0----------------2--2-----2----2-----2--------2-------------2-----
-2-------1---0------------------------------0----------------------
----------------4----0-----0----0-----0-------------------4--------
-------------------------------------------------------------------

--------------------------------------10----10----10---10-
-3-----------------------------10--12----10-----9----8----
-----4--2-2--3--5--3--------11-----12----11----10----9----
---4---------5--------0--12-------------------------------
-2-----------5--------------------------------------------
-------------3--------------------------------------------

repeat verse until *

-7-----7---9/10---7--9/10---12--------12--14--15-17-19---17-15-14-15-14h15p14p12-
-7--7--7----------7----------0--0--12--0-------------0---------------------------
-7--7--7----------7----------0--0------0-------------0---------------------------
-9--9--9----------7----------9---------------------------------------------------
-9-----9----------9---------10---------------------------0-----------------------
-7-----7----------7----------0--0------------------------------------------------

-14-12-10-12-10h12p10p9--9--10--9h10p9----9------------2------------2-3-5-
---------------------------------------12---12-10-10---3------2-3-5-----2-
-------------------------------------------------------2--2-4-----------2-
-------------------------------------------------------0------0---------2-
-0-----------------------0-------------------------0--------------------4-
--------------------------------------------------------------------------

-5-----------2-3-5--7------9/10--7--9/10-7--9/10--12-------------12-------------
-2-----2-3-5--------7------------7-------7---------0------5-7-8------8----------
-2-2-4--------------7---7--------7-------7---------0--------------9--5--5--5--5-
-2------------------7---7--------7-------7---------9----------5------5--5--5--5-
-4------------------9---9--------9-------9--------12---7--6---5-----------------
--------------------7---7--------7-------7---------0----------------------------

-8--8--8----
-5--5--5----
-5--5--5--5-










QUEEN Chords - bohemian rhapsody4 Tabs, Tab for Guitar

Site contains QUEEN tabs (tablatures), chords, song lyrics of popular songs, compilations.
You may find bohemian rhapsody4 - QUEEN tab, lyric, free tabs for guitars and basses here.


© 2002 TabPower.com All tabs are the author's own work and represents their interpretation of the QUEEN song.
You may only use this QUEEN tab for private study, scholarship, or research.
bohemian rhapsody4 Tab by QUEEN Tabs/Chords/Tablatures
Online Guitar Lessons