GREEN DAY Tabs, at the library2
Search tabs by artist/band name or song title:  

GREEN DAY Tabs - at the library2 Guitar Tablatures, Chords






at the library2 tabs @ 911Tabs
#----------------------------------PLEASE NOTE----------------------------------#
# This file is the author's own work and represents their interpretation of the #
# song. You may only use this file for private study, scholarship, or research. #
#-------------------------------------------------------------------------------#

Song: At the Library by Green Day
Album:1,039 Smoother Out Slappy Hours
Track: 1
Tabbed by Burney.

This is a cool song and I know this tab is 100% CORRECT. I got it from the official tab book. If there are any questions or comments or you want any more tab from 1,039 or kerplunk don’t hesitate to e-mail me at greendayrocktheworld@hotmail.com.
I have tab for the solo from best thing in town and dry ice and many, many more.
Thanks.

Key: / \ slide up or down.
(8)	harmonics
        xx
        xx  muted strings (with finger of fret finger)
        p.m………. palm mute (with pick hand)

 
Intro

     Do this  3x                                b5
   Pm…D….       …C5….         ………..       …………
E|-----------------------------------|----------------------------------------------------------------|
B|-----------------------------------|----------------------------------------------------------------|
G|-----------------------------------|----4--4--4--4----x--x---------------------------------------|
D|---4--4--4--------5--5--5-------|----4--4--4--4----x--x---------------------------------------|
A|---5--5--5---0---3--3--3---0---|----2--2--2--2----x--x---------------------------------------|
E|-----------------------------------|---------------------------------14-\---------------------------|


     Do this 3x
   Pm………       ……….         ………..       …………
E|-----------------------------------|----------------------------------------------------------------|
B|-----------------------------------|----------------------------------------------------------------|
G|-----------------------------------|----4--4--4--4------------------------------------------------| 
D|---4--4--4-------5--5--5--------|----4--4--4--4-----0------------------------------------------|
A|---5--5--5---0---3--3--3---0---|----2--2--2--2-----0------------------------------------------|
E|-----------------------------------|----------------------0-----------------------------------------|

Riff 2
     G5                B5                              C5                 D5
 Hold----------------------|              hold--------------------------|
E|---------------------------------------|------------------------------------------------------------|
B|---------------------------------------|------------------------------------------------------------|
G|----------0--------------0------------|------------0--------------0-------------------------------|
D|----------------------4---------------|--------5--------------3------------------------------------| Do this 4x
A|-------5-------2--2------------------|--3--3----------5--5---------------------------------------|
E|-3--3---------------------------------|-------------------------------------------------------------|

Then it goes into 
Harm------------------------------------------------------------------|
E|-----------7-------5----------7------------------------5------------------------------------------|
Song: At the Library by Green Day
Album:1,039 Smoother Out Slappy Hours
Track: 1
Tabbed by Burney.

This is a cool song and I know this tab is 100% CORRECT. I got it from the official tab book. If there are any questions or comments or you want any more tab from 1,039 or kerplunk don’t hesitate to e-mail me at greendayrocktheworld@hotmail.com.
I have tab for the solo from best thing in town and dry ice and many, many more.
Thanks.

Key: / \ slide up or down.
(9)	harmonics
        xx
        xx  muted strings (with finger of fret finger)
        p.m………. palm mute (with pick hand)

 
Intro

     Do this  3x                                b5
   Pm…D….       …C5….         ………..       …………
E|-----------------------------------|----------------------------------------------------------------|
B|-----------------------------------|----------------------------------------------------------------|
G|-----------------------------------|----4--4--4--4----x--x---------------------------------------|
D|---4--4--4--------5--5--5-------|----4--4--4--4----x--x---------------------------------------|
A|---5--5--5---0---3--3--3---0---|----2--2--2--2----x--x---------------------------------------|
E|-----------------------------------|---------------------------------14-\---------------------------|


     Do this 3x
   Pm………       ……….         ………..       …………
E|-----------------------------------|----------------------------------------------------------------|
B|-----------------------------------|----------------------------------------------------------------|
G|-----------------------------------|----4--4--4--4------------------------------------------------| 
D|---4--4--4-------5--5--5--------|----4--4--4--4-----0------------------------------------------|
A|---5--5--5---0---3--3--3---0---|----2--2--2--2-----0------------------------------------------|
E|-----------------------------------|----------------------0-----------------------------------------|

Riff 2
     G5                B5                              C5                 D5
 Hold----------------------|              hold--------------------------|
E|---------------------------------------|------------------------------------------------------------|
B|---------------------------------------|------------------------------------------------------------|
G|----------0--------------0------------|------------0--------------0-------------------------------|
D|----------------------4---------------|--------5--------------3------------------------------------| Do this 4x
A|-------5-------2--2------------------|--3--3----------5--5---------------------------------------|
E|-3--3---------------------------------|-------------------------------------------------------------|

Then it goes into 
Harm------------------------------------------------------------------|
E|-----------7-------5----------7------------------------5------------------------------------------|
B|--7-----------7--------7---------------------------7-------7---7---------------------------------|
G|------7----------------------------7-----5-----5--------------------------------------------------|
D|---------------------------------------------5-----------------------------------------------------|
A|----------------------------------------------------------------------------------------------------|
E|----------------------------------------------------------------------------------------------------|

   G5            B5              C5                D5           G5                  B5                  C5                     D5
1.Hey        there    look   -   ing    at   me,                ah,   tell    me,        what__    do   you       see?
2. see additional lyrics.

G5                     B5                           C5                       D5                      G5                 B5          C5        D5 
       But   you   quick  -  ly       turn__     your    head__      a           -            way

G5                            B5                        C5                     D5                  G5                      B5   
        I    try      to     find    the    words__       I  could   use.                   Don’t  have the cour-age  to   

  C5                        D5            
come_    up    to      you._

G5               B5                         C5                  D5                            G5                B5        C5       D5
        My    chance    is    look     -     ing       a___        bit_________     grey.

     

E                                      D                                            E                              D
                Start - ing   a  -  cross_   the     room.___                 are you           leave    -      ing          soon



                 E                                   D                                                E             
E|-----------------------------------------2--|--(-2)----2--2--2--2--2--2---|-----0----0--0--0---3--------------------|
B|-----------------------------------------3--|--(-3)----3-3--3--3--3--3----|-----0----0--0--0---2--------------------|
G|---1-----1-----1----1-----1----1------2--|--(-2)----2-2--2--2--2--2----|-----1----1--1--1---3--------------------|
D|---2-----2-----2----2-----2----2------0--|--(-0)----0-0--0--0--0--0----|-2---2----2--2--2---0---	-----------------|
A|---2-----2-----2----2-----2----2----------|--------------------------------|-2---2----2--2--2------------------------|
E|---0-----0-----0----0-----0----0----------|--------------------------------|-0---0----0--0--0------------------------|
   D
|-(3)--3---3--3--3--3---3---|
|-(2)--2---2--2--2--2---2---|
|-(3)--3---3--3--3--3---3---|
|-(0)--0---0--0--0--0---0---|
|-------------------------------|
|-------------------------------|
                                                                                                                  1.

E                                         D                                                                     C5                                  D5
                    I     just           need___            a            lit    -     tle               time.



E|-----------------------------------------2--|--(-2)----2--2--2--2--2--2---|-----------------|--------------------------|
B|-----------------------------------------3--|--(-3)----3-3--3--3--3--3----|-----------------|--------------------------|
G|---1-----1-----1----1-----1----1------2--|--(-2)----2-2--2--2--2--2----|--5------5-5-5-|-(5)--5--5--5----------0|
D|---2-----2-----2----2-----2----2------0--|--(-0)----0-0--0--0--0--0----|--5------5-5-5-|-(5)--5--5--5--------7--|
A|---2-----2-----2----2-----2----2----------|--------------------------------|--3------3-3-3-|-(3)--3--3--3--5--5----|
E|---0-----0-----0----0-----0----0----------|--------------------------------|-----------------|--------------------------|


2.C5                                                              G5                             C5                             D5       
time.
(time.________  what    time?_      wow)

                                               guitar solo
E|--------------|----------------|-------------------------3--|-(3)---------------------------------|
B|--------------|----------------|--3---3-----------------3--|-(3)---3--3--3--------3--3--3-----|
G|-5-----------|------5---------|--0---0-------0---0----0--|-(0)---0--0--0--------0--0--0-----|
D|-5-----------|------5---------|--0---0-------0---0--------|-------0--0--0--------0--0--0-----|
A|-3-----------|------3---------|--x---x-------x---x--------|-------x--x--x--------x--x--x-----|
E|--------------|-----------------|-3---3-------3---3--------|-------3--3--3--------3---3--3-----|


E|-------------------------3--|-(3)------------------------3--|(3)--------------7---7---7-------|
B|--3---3-----------------3--|-(3)---3--3--3-----3--3--3--|(3)---3---3-----8---8---8-------|
G|--0---0-------0---0----0--|-(0)---0--0--0-----0--0--0--|(0)---0---0-----7---7---7-------|
D|--0---0-------0---0--------|-------0--0--0-----0--0--0--|(0)---0---0-----0---0---0-------|
A|--x---x-------x---x--------|-------x--x--x-----x--x--x--|(-)----x---x----------------------|
E|--3---3-------3---3--------|-------3--3--3-----3---3—3-|(3)--3---3-----------------------|


(the 10 is a ten not a 1 and 0)
E|-7---8--8--10--10------10--10--|(10)--8--8----7--7--------------------------------|
B|-8---8--8---8----8-------8----8--|(8-)--8---8----8--8-------------------------------|
G|-7---7--7---7----7-------7----7--|(7-)--7---7----7--7------7\--14------------------|
D|-0---0--0---0----0-------0----0--|(0-)--0---0----0--0------------------0--0---------|
A|------------------------------------|----------------------------------------0--0---------|
E|-------------------------------------|------------------------------------------------------|

E|--8---8----7---7----8-|-(8)--10---10--------8----7-\----|-3-------3------3----3----3----3--|
B|--8---8----8---8----8-|-(8)--8----8----------8----8-\-\--|-3-------3------3----3----3----3--|
G|--7---7----7---7----7-|-(7)--7----7----------7----7-\-\--|-0-------0------0----0----0----0--|
D|--0---0----0---0----0-|-(0)--0----0----------0----0-\-\--|-0-------0------0----0----0----0--|
A|-------------------------|--------------------------------\---|-x-------x------x----x----x----x--|
E|--------------------------|-----------------------------------|-3-------3------3----3----3----3--|


E|(3)---3---3---3------3---3---3-----3-----3----------3---|--(3)---3------------3----3---|----------------|
B|(3)---3---3---3------3---3---3-----3-----3----------3---|--(3)---3------------3----3---|---3-----------|
G|(0)---0---0---0------0---0---0-----0-----0----------0---|--(0)---0------------0----0---|---0-----------|
D|(0)---0---0---0------0---0---0-----0-----0----------0---|--(0)---0------------0----0---|---0-----------|
A|(-)----x---x---x------x---x---x-----x-----x----------x---|--(-)---x------------x----x---|----x----------|
E|(3)----3---3---3------3---3---3-----3-----3----------3---|--(3)---3-----------3----3----|---3----------|





E|-----------------|---------------|----------------|
B|-----------------|---------------|----------------|
G|-(3)------------|------(3)------|------(3)-------|
D|-(0)------------|------(0)------|------(0)-------|
A|-(-)-------------|------(-)------|------(-)--------|
E|-(3)------------|------(3)------|-----(3)---------|


Bridge
G5
Why             did           have____   to___  leave_  so__    soon?____________

P.M………………………………………………………………………………………………………
|-----------------------------||-----------------------------||-----------------------------||-----------------------------|
|-----------------------------||-----------------------------||-----------------------------||-----------------------------|
|-----------------------------||-----------------------------||-----------------------------||-----------------------------|
|-5--5--5--5--5--5--5--5--||-5--5--5--5--5--5--5--5--||-5--5--5--5--5--5--5--5--||-5--5--5--5--5--5--5--5--|
|-5--5--5--5--5--5--5--5--||-5--5--5--5--5--5--5--5--||-5--5--5--5--5--5--5--5--||-5--5--5--5--5--5--5--5--|
|-3--3--3--3--3--3--3--3--||-3--3--3--3--3--3--3--3--||-3--3--3--3--3--3--3--3--||-3--3--3--3--3--3--3--3--|


why did you have to walk away

|-----------------------------||-----------------------------|-2----2--2--2-2--2-2-|(2)-2-2-----2--2------|
|-----------------------------||-----------------------------|-3----3--3--3-3--3-3-|(3)-3-3-----3--3------|
|-----------------------------||-----------------------------|-2----2--2--2-2--2-2-|(2)-2-2-----2--2--0---|
|-5--5--5--5--5--5--5--5--||-5--5--5--5--5--5--5--5--|-0----0--0--0-0--0-0-|(0)-0-0-----0--0--0---|
|-5--5--5--5--5--5--5--5--||-5--5--5--5--5--5--5--5--|-------------------------|------------------------|
|-3--3--3--3--3--3--3--3--||-3--3--3--3--3--3--3--3--|-------------------------|------------------------|


3.
G5           B5                         C5                   D5        G5                        B5               C5                        D5
OH,          well       it     hap   -   pened a  -  gain.        She walked a -  way      with___      her   boy -friend 

G5                 B5                    C5                  D5                         G5             B5                C5                  D5
         May  -  be    we’ll  meet__   a  -  gain__         some        -        day
 
G5                 B5                    C5                  D5                         G5             B5                C5                  D5

     May  -  be    we’ll  meet__   a  -  gain__         some        -        day,             some   -  day.___        yeah.



Outro

     Do this  3x                                b5
   Pm…D….       …C5….       
E|-----------------------------------|-------------7--------5-----------|---------------------------|
B|-----------------------------------|--------7-------7----5--0-0-----|---------------------------|
G|-----------------------------------|---5---------------------0-0-----|---------------------------|
D|---4--4--4--------5--5--5-------|-----------------------------------|----------5----------------|
A|---5--5--5---0---3--3--3---0---|-----------------------------------|----------5----------------|
E|-----------------------------------|--------------------------------0--|----------3----------------|



Additional Lyrics

Verse 2:

What is it that drives me mad?
Girls like you that I never had.
What is it about you that I adore?
What makes me feel so much pain?
What makes me go so insane?
What is it about you that I adore?
(To Chorus)

That’s it.
A great song I must say.


Oh I can do any song off of 1,039 kerplunk or dookie, If you want just e-mail me.

B|--7-----------7--------7---------------------------7-------7---7---------------------------------|
G|------7----------------------------7-----5-----5--------------------------------------------------|
D|---------------------------------------------5-----------------------------------------------------|
A|----------------------------------------------------------------------------------------------------|
E|----------------------------------------------------------------------------------------------------|

   G5            B5              C5                D5           G5                  B5                  C5                     D5
1.Hey        there    look   -   ing    at   me,                ah,   tell    me,        what__    do   you       see?
2. see additional lyrics.

G5                     B5                           C5                       D5                      G5                 B5          C5        D5 
       But   you   quick  -  ly       turn__     your    head__      a           -            way

G5                            B5                        C5                     D5                  G5                      B5   
        I    try      to     find    the    words__       I  could   use.                   Don’t  have the cour-age  to   

  C5                        D5            
come_    up    to      you._

G5               B5                         C5                  D5                            G5                B5        C5       D5
        My    chance    is    look     -     ing       a___        bit_________     grey.

     

E                                      D                                            E                              D
                Start - ing   a  -  cross_   the     room.___                 are you           leave    -      ing          soon



                 E                                   D                                                E             
E|-----------------------------------------2--|--(-2)----2--2--2--2--2--2---|-----0----0--0--0---3--------------------|
B|-----------------------------------------3--|--(-3)----3-3--3--3--3--3----|-----0----0--0--0---2--------------------|
G|---1-----1-----1----1-----1----1------2--|--(-2)----2-2--2--2--2--2----|-----1----1--1--1---3--------------------|
D|---2-----2-----2----2-----2----2------0--|--(-0)----0-0--0--0--0--0----|-2---2----2--2--2---0---	-----------------|
A|---2-----2-----2----2-----2----2----------|--------------------------------|-2---2----2--2--2------------------------|
E|---0-----0-----0----0-----0----0----------|--------------------------------|-0---0----0--0--0------------------------|
   D
|-(3)--3---3--3--3--3---3---|
|-(2)--2---2--2--2--2---2---|
|-(3)--3---3--3--3--3---3---|
|-(0)--0---0--0--0--0---0---|
|-------------------------------|
|-------------------------------|
                                                                                                                  1.

E                                         D                                                                     C5                                  D5
                    I     just           need___            a            lit    -     tle               time.



E|-----------------------------------------2--|--(-2)----2--2--2--2--2--2---|-----------------|--------------------------|
B|-----------------------------------------3--|--(-3)----3-3--3--3--3--3----|-----------------|--------------------------|
G|---1-----1-----1----1-----1----1------2--|--(-2)----2-2--2--2--2--2----|--5------5-5-5-|-(5)--5--5--5----------0|
D|---2-----2-----2----2-----2----2------0--|--(-0)----0-0--0--0--0--0----|--5------5-5-5-|-(5)--5--5--5--------7--|
A|---2-----2-----2----2-----2----2----------|--------------------------------|--3------3-3-3-|-(3)--3--3--3--5--5----|
E|---0-----0-----0----0-----0----0----------|--------------------------------|-----------------|--------------------------|


2.C5                                                              G5                             C5                             D5       
time.
(time.________  what    time?_      wow)

                                               guitar solo
E|--------------|----------------|-------------------------3--|-(3)---------------------------------|
B|--------------|----------------|--3---3-----------------3--|-(3)---3--3--3--------3--3--3-----|
G|-5-----------|------5---------|--0---0-------0---0----0--|-(0)---0--0--0--------0--0--0-----|
D|-5-----------|------5---------|--0---0-------0---0--------|-------0--0--0--------0--0--0-----|
A|-3-----------|------3---------|--x---x-------x---x--------|-------x--x--x--------x--x--x-----|
E|--------------|-----------------|-3---3-------3---3--------|-------3--3--3--------3---3--3-----|


E|-------------------------3--|-(3)------------------------3--|(3)--------------7---7---7-------|
B|--3---3-----------------3--|-(3)---3--3--3-----3--3--3--|(3)---3---3-----8---8---8-------|
G|--0---0-------0---0----0--|-(0)---0--0--0-----0--0--0--|(0)---0---0-----7---7---7-------|
D|--0---0-------0---0--------|-------0--0--0-----0--0--0--|(0)---0---0-----0---0---0-------|
A|--x---x-------x---x--------|-------x--x--x-----x--x--x--|(-)----x---x----------------------|
E|--3---3-------3---3--------|-------3--3--3-----3---3—3-|(3)--3---3-----------------------|


(the 10 is a ten not a 1 and 0)
E|-7---8--8--10--10------10--10--|(10)--8--8----7--7--------------------------------|
B|-8---8--8---8----8-------8----8--|(8-)--8---8----8--8-------------------------------|
G|-7---7--7---7----7-------7----7--|(7-)--7---7----7--7------7\--14------------------|
D|-0---0--0---0----0-------0----0--|(0-)--0---0----0--0------------------0--0---------|
A|------------------------------------|----------------------------------------0--0---------|
E|-------------------------------------|------------------------------------------------------|

E|--8---8----7---7----8-|-(8)--10---10--------8----7-\----|-3-------3------3----3----3----3--|
B|--8---8----8---8----8-|-(8)--8----8----------8----8-\-\--|-3-------3------3----3----3----3--|
G|--7---7----7---7----7-|-(7)--7----7----------7----7-\-\--|-0-------0------0----0----0----0--|
D|--0---0----0---0----0-|-(0)--0----0----------0----0-\-\--|-0-------0------0----0----0----0--|
A|-------------------------|--------------------------------\---|-x-------x------x----x----x----x--|
E|--------------------------|-----------------------------------|-3-------3------3----3----3----3--|


E|(3)---3---3---3------3---3---3-----3-----3----------3---|--(3)---3------------3----3---|----------------|
B|(3)---3---3---3------3---3---3-----3-----3----------3---|--(3)---3------------3----3---|---3-----------|
G|(0)---0---0---0------0---0---0-----0-----0----------0---|--(0)---0------------0----0---|---0-----------|
D|(0)---0---0---0------0---0---0-----0-----0----------0---|--(0)---0------------0----0---|---0-----------|
A|(-)----x---x---x------x---x---x-----x-----x----------x---|--(-)---x------------x----x---|----x----------|
E|(3)----3---3---3------3---3---3-----3-----3----------3---|--(3)---3-----------3----3----|---3----------|





E|-----------------|---------------|----------------|
B|-----------------|---------------|----------------|
G|-(3)------------|------(3)------|------(3)-------|
D|-(0)------------|------(0)------|------(0)-------|
A|-(-)-------------|------(-)------|------(-)--------|
E|-(3)------------|------(3)------|-----(3)---------|


Bridge
G5
Why             did           have____   to___  leave_  so__    soon?____________

P.M………………………………………………………………………………………………………
|-----------------------------||-----------------------------||-----------------------------||-----------------------------|
|-----------------------------||-----------------------------||-----------------------------||-----------------------------|
|-----------------------------||-----------------------------||-----------------------------||-----------------------------|
|-5--5--5--5--5--5--5--5--||-5--5--5--5--5--5--5--5--||-5--5--5--5--5--5--5--5--||-5--5--5--5--5--5--5--5--|
|-5--5--5--5--5--5--5--5--||-5--5--5--5--5--5--5--5--||-5--5--5--5--5--5--5--5--||-5--5--5--5--5--5--5--5--|
|-3--3--3--3--3--3--3--3--||-3--3--3--3--3--3--3--3--||-3--3--3--3--3--3--3--3--||-3--3--3--3--3--3--3--3--|


why did you have to walk away

|-----------------------------||-----------------------------|-2----2--2--2-2--2-2-|(2)-2-2-----2--2------|
|-----------------------------||-----------------------------|-3----3--3--3-3--3-3-|(3)-3-3-----3--3------|
|-----------------------------||-----------------------------|-2----2--2--2-2--2-2-|(2)-2-2-----2--2--0---|
|-5--5--5--5--5--5--5--5--||-5--5--5--5--5--5--5--5--|-0----0--0--0-0--0-0-|(0)-0-0-----0--0--0---|
|-5--5--5--5--5--5--5--5--||-5--5--5--5--5--5--5--5--|-------------------------|------------------------|
|-3--3--3--3--3--3--3--3--||-3--3--3--3--3--3--3--3--|-------------------------|------------------------|


3.
G5           B5                         C5                   D5        G5                        B5               C5                        D5
OH,          well       it     hap   -   pened a  -  gain.        She walked a -  way      with___      her   boy -friend 

G5                 B5                    C5                  D5                         G5             B5                C5                  D5
         May  -  be    we’ll  meet__   a  -  gain__         some        -        day
 
G5                 B5                    C5                  D5                         G5             B5                C5                  D5

     May  -  be    we’ll  meet__   a  -  gain__         some        -        day,             some   -  day.___        yeah.



Outro

     Do this  3x                                b5
   Pm…D….       …C5….       
E|-----------------------------------|-------------7--------5-----------|---------------------------|
B|-----------------------------------|--------7-------7----5--0-0-----|---------------------------|
G|-----------------------------------|---5---------------------0-0-----|---------------------------|
D|---4--4--4--------5--5--5-------|-----------------------------------|----------5----------------|
A|---5--5--5---0---3--3--3---0---|-----------------------------------|----------5----------------|
E|-----------------------------------|--------------------------------0--|----------3----------------|



Additional Lyrics

Verse 2:

What is it that drives me mad?
Girls like you that I never had.
What is it about you that I adore?
What makes me feel so much pain?
What makes me go so insane?
What is it about you that I adore?
(To Chorus)

That’s it.
A great song I must say.


Oh I can do any song off of 1,039 kerplunk or dookie, If you want just e-mail me.







GREEN DAY Chords - at the library2 Tabs, Tab for Guitar

Site contains GREEN DAY tabs (tablatures), chords, song lyrics of popular songs, compilations.
You may find at the library2 - GREEN DAY tab, lyric, free tabs for guitars and basses here.


© 2002 TabPower.com All tabs are the author's own work and represents their interpretation of the GREEN DAY song.
You may only use this GREEN DAY tab for private study, scholarship, or research.
at the library2 Tab by GREEN DAY Tabs/Chords/Tablatures
Online Guitar Lessons