LED ZEPPELIN Tabs, stairway to heaven4
Search tabs by artist/band name or song title:  

LED ZEPPELIN Tabs - stairway to heaven4 Guitar Tablatures, Chords






stairway to heaven4 tabs @ 911Tabs
#----------------------------------PLEASE NOTE----------------------------------#
# This file is the author's own work and represents their interpretation of the #
# song. You may only use this file for private study, scholarship, or research. #
#-------------------------------------------------------------------------------#


Author/Artist: Led Zeppelin
Title: Stairway to Heaven (100% correct!!)
Album: Led Zeppelin IV  (untitled)
Transcribed by: Ryan Bache
Email: dragon_o0o@yahoo.com

Alright, as most of you know, there is a BIG problem with
incorrect tabs found on the internet. Well I got sick of 
finding tabs on the internet (especially Led Zepp.) that 
weren't correct at all. So I bought a book covering his 
first 5 albums. I intend to tab out most of the songs in here
overtime (and by request of course). So anyway, as far 
as I know, this is the first 100% correct version of Stairway
to Heaven out there. And don't email me telling me that 
anything i've tabbed out in here is wrong, unless you are 
POSITIVE it is a mistake, in which case i'll gladly change 
it. There is one bad thing though. My book doesn't include
solo's (or most of them atleast), but some help is more 
than none, right? Also, when you come to the part where
he's singing "If there's a bustle in your hedgerow...." that
part and "Yes, there are two paths you can go by..." are 
played with the same tabbs, so I put the first verse words 
in CAPS and the second verse with a capitalized letter in 
the beginning and end of each word. I'll have phrases 
from each verse in a different form of capitalization. 
Understand? If you still don't get it, then email me, i'll
explain. One last thing before i get started that you should 
know: this song had normal tuning and the beginning is 
played slowly (as wellas most of the song). Well, here 
goes: 

----------5--7--------7--8--------8--4--------2--0-----------0----------------
-------5--------5-----------5-----------3-----------1-----1-----1-------------
----5--------------5-----------5-----------2-----------2-----------2--0--2-2--
-7-----------6-----------5-----------2-----------3----------------------------
----------------------------------------------------------------------2--0-0--
------------------------------------------------------------------------------
                                                                              

---------------------7--------7--8--------8--2--------2--0-----------0--------
------------------5-----5-----------5-----------3-----------1-----1----1------
---------------5-----------5-----------5-----------2-----------2---------2----
------------7--------6-----------5-----------4-----------3--------------------
-0/8--7--0--------------------------------------------------------------------
------------------------------------------------------------------------------
                                                                              

--------------------------0--2--------2--0--------0---------------------------
--------------------------------3-----------1--------0-----------1--------1---
-0--2-2----------------0-----------3-----------2--------2-----------0---------
--------------------2--------0-----------3-----------------------------2------
-2--0-0----0--2--3-----------------------------------0-----0--2--3------------
------------------------------------------------------------------------------
                                                                              

-3--------3--3p2--2-2----------------------2--------2--0--------0-------------
----0--------3----3-3-------------------1-----3-----------1--------0----------
-------0-----2----2-2----------------0-----------2-----------2--------2-------
-------------0----0-0-------------2--------0-----------3----------------------
-------------------------0--2--3-----------------------------------0-----0----
-3----------------------------------------------------------------------------
                                                                              

-------------------------2--0-0-0---------------------------5--7--------7-----
-------------1--------3-----1-1-1------------------------5--------5-----------
----------0--------2--------2-2-2---------------------5--------------5--------
-------2--------0-----------3-3-3------------------7-----------6--------------
-2--3-------------------------------------------------------------------------
------------------------------------------------------------------------------
                                 ------  There's a la - dy   sure      all    

-8--------8--2--------2--0-----------0----------------------------5--7--------
----5-----------3-----------1-----1-----1----------------------5--------5-----
-------5-----------2-----------2-----------2--0--2-2--------5--------------5--
-5-----------4-----------3-------------------------------7-----------6--------
----------------------------------------------2--0-0--------------------------
------------------------------------------------------------------------------
 gliters    gold        buy - ing  stairwayto heav-en.  gets    she           

--7--8--------8--2--------2--0-----------0------------------------------------
--------5-----------3-----------1-----1-----1------------------------------1--
-----------5-----------2-----------2-----------2--0--2-2----------------0-----
-----5-----------4-----------3---------------------------------------2--------
--------------------------------------------------2--0-0----0--2--3-----------
------------------------------------------------------------------------------
 if stores      closed     word  she     what she came for.            Ooh,   

--2--------2--0-----------------------------0-----3--------3--3p2-2-2---------
-----3-----------1-----1--0-----------1--------1-----0--------3---3-3---------
--------2-----------2--------2-----------0--------------0-----2---2-2---------
--0-----------3-----------------------------------------------0---0-0---------
--------------------------0-----0--2--3---------------------------------0--2--
--------------------------------------------------3---------------------------
              ooh,             and    buy - ing   stairway   heav-en.         

-----------0--2--------2--0-----------------------------------2--------2--0---
-----------------3-----------1-----1--0-----------1--------1-----3--------1---
--------0-----------2-----------2--------2-----------0--------------2-----0---
-----2--------0-----------3-----------------------------2-----0-----------3---
--3-----------------------------------0-----0--2--3---------------------------
------------------------------------------------------------------------------
 sign      wall           wants       sure       know        words   two me-  

--0-0-------------------5--7--------7--8--------8--2--------2--0-----------0--
--1-1----------------5--------5-----------5-----------3-----------1-----1-----
--2-2-------------5---------------5----------5-----------2-----------2--------
--3-3----------7-----------6-----------5-----------4-----------3--------------
------------------------------------------------------------------------------
------------------------------------------------------------------------------
 anings. In a  tree   by    brook    song - bird   sings       all            

-------------------------------5-7-------7-------------8-------------2--------
--1--------------------------------5---5---5---------5---5---------3---3------
-----2--0--2-2---------------5-------5-------5-----5-------5-----2-------2----
---------------------------7-----6-------6-----6-5-----------5-4-----------4--
--------2--0-0---0/8--7--0----------------------------------------------------
------------------------------------------------------------------------------
  mis - giv-en.                                                               

-------0-----------0---------------------3--3-3-3--3-----0-----3-----2-----2--
-----1---1-------1---1---------------3---1--1-1-1--1-----1-----3-----3-----3--
---2-------2---2-------2----0--2-2---0---2--2-2-2--2-----0-----2-----2-----2--
-3-----------3-----------3-----------0---2--2-2-2--2-----2-----0--0-----0--0--
----------------------------2--0-0---2---0--0-0-0--0--0-----0-----------------
------------------------------------------------------------------------------
 (all upcoming strokes are down unless noted) U    (i play this part w/o...)  

--2-2-2--0--0---3--3-3-3--3----0---7------5----3----5--------3--3-3-3--3------
--3-3-3--1--1---1--1-1-1--1----1---8------7----5----7--------1--1-1-1--1------
--2-2-2--0--0---2--2-2-2--2----0---9------7----5----7--------2--2-2-2--2------
--0-0-0--2--2---2--2-2-2--2----2-------0----0----0-----0-----2--2-2-2--2------
---------0--0---0--0-0-0--0--0---0------------------------0--0--0-0-0--0--0---
------------------------------------------------------------------------------
    U (..the open..) U  (..A's + D's) wonder.                Ooh,             

-0-----3-----2------2--2-2-2-0-0--3--3-3-3--3-----0-----7------5----3----5----
-1-----3-----3------3--3-3-3-1-1--1--1-1-1--1-----1-----8------7----5----7----
-0-----2-----2------2--2-2-2-0-0--2--2-2-2--2-----0-----9------7----5----7----
-2-----0--0------0--0--0-0-0-2-2--2--2-2-2--2-----2---------0----0----0-------
----0------------------------0-0--0--0-0-0--0--0-----0------------------------
------------------------------------------------------------------------------
                         U             U                                      

------------------------------------------------------------------------------
----------------1-----------3--0--------------1-----------------1--3----------
-------------0-----------0--------2--------2-----------------0-----------0----
-0--------2-----------0-----------------2-----------------2-----------0-------
----0--3-----------2-----------0-----0-----------0--2--3-----------2----------
------------------------------------------------------------------------------
 There's        I  get   when       to     west       spir - it cry-ing  for  

------------------------------------------------------------------------------
-1---1-------------------1-----------3--0--------------1-----------------1----
-2---2----------------0-----------0--------2--------2-----------------0-------
-2---2-------------2-----------0-----------------2-----------------2----------
-----0----0--2--3-----------2-----------0-----0-----------0--2--3-------------
-1----------------------------------------------------------------------------
 leav-in. In my            seen  rings      through trees   the voic-es       

-------------------------------------------------3--3-3-3--3-----0-----3------
-3--------1---1----------------------------------1--1-1-1--1-----1-----3------
-------0--2---2----------------0-----------0-----2--2-2-2--2-----0-----2------
----0-----2---2-------------2-----------0--------2--2-2-2--2-----2-----0--0---
-2------------0----0--2--3--------3--2--------2--0--0-0-0--0--0-----0---------
----------1-------------------------------------------------------------------
     standlook-ing.                                   U                Ooh,   

-2------2--2-2-2--0--0---3--3-3-3--3-----0----7---5---3---5-----3--3-3-3--3---
-3------3--3-3-3--1--1---1--1-1-1--1-----1----8---7---5---7-----1--1-1-1--1---
-2------2--2-2-2--0--0---2--2-2-2--2-----0----9---7---5---7-----2--2-2-2--2---
-----0--0--0-0-0--2--2---2--2-2-2--2-----2------0---0---0---0---2--2-2-2--2---
------------------0--0---0--0-0-0--0--0-----0-----------------0-0--0-0-0--0-0-
------------------------------------------------------------------------------
       wonderU       U        U                                 Ooh, U        

-0---3---2----2-2-2-2-0-0--3--3-3-3--3---0---7---5---3---5--------------------
-1---3---3----3-3-3-3-1-1--1--1-1-1--1---1---8---7---5---7-----------1--------
-0---2---2----2-2-2-2-0-0--2--2-2-2--2---0---9---7---5---7---------0-------0--
-2-----0----0-0-0-0-0-2-2--2--2-2-2--2---2-----0---0---0---0-----2-------0----
---0------------------0-0--0--0-0-0--0-0---0-----------------0-3-------2------
------------------------------------------------------------------------------
          wonder  U             U                         And         soon    

---------0--------------------------------------------------------------------
-3-0----------1-----------1-3-----1--1-----------------1------------3--0------
-----2------2-----------0-------0-2--2-------------0-------------0--------2---
-------2--------------2-------0---2--2----------2-------------0---------------
---0---0--------0-2-2-------2--------0-0--2--3------------2------------0------
----------------------------------1-------------------------------------------
      call  tune    piper       rea-son.         day     dawn         those   

------------------------------------------------------------3--3-3-3--3-------
-------1-----------1-3-----1-1------------------------------1--1-1-1--1-------
-----2-----------0-------0-2-2------------0-----------0-----2--2-2-2--2-------
---2-----------2-------0---2-2---------2-----------0--------2--2-2-2--2-------
-0-------0-2-3-------2-------0--0--2-3-------3--2--------2--0--0-0-0--0--0----
---------------------------1--------------------------------------------------
  stand    for-ests echo   ter.                                  U            

-0-----3-----2------2--2-2-2--0-0---3--3--3-3--3-----0-----7-----5-----3------
-1-----3-----3------3--3-3-3--1-1---1--1--1-1--1-----1-----8-----7-----5------
-0-----2-----2------2--2-2-2--0-0---2--2--2-2--2-----0-----9-----7-----5------
-2-----0--0------0--0--0-0-0--2-2---2--2--2-2--2-----2--------0-----0-----0---
----0-------------------------0-0---0--0--0-0--0--0-----0---------------------
------------------------------------------------------------------------------
          Wo wo wo  wo   U      U         U                                   

-5----------------------------------------------------------------------------
-7----------------1-----------3--0-------------1------------------1--3--------
-7-------------0-----------0--------2-------2------------------0-----------0--
---0--------2-----------0----------------2------------------2-----------0-----
------0--3-----------2-----------0----0------------0--2--3-----------2--------
------------------------------------------------------------------------------
         IF YeS      BUSTLE  CaN gO bY     ALARMED            There'SPRING    

-----------------------------------------3--3-3-3--3-----0-----3-----2-----2--
--1---1----------------------------------1--1-1-1--1-----1-----3-----3-----3--
--2---2----------------0-----------0-----2--2-2-2--2-----0-----2-----2-----2--
--2---2-------------2-----------0--------2--2-2-2--2-----2-----0--0-----0--0--
------0----0--2--3--------3--2--------2--0--0-0-0--0--0-----0-----------------
--1---------------------------------------------------------------------------
  MAY QUEEN                                   U                               

--2--2--2--0--0--3--3-3-3--3-----0-----7-----5----3----5--------3--3-3-3--3---
--3--3--3--1--1--1--1-1-1--1-----1-----8-----7----5----7--------1--1-1-1--1---
--2--2--2--0--0--2--2-2-2--2-----0-----9-----7----5----7--------2--2-2-2--2---
--0--0--0--2--2--2--2-2-2--2-----2--------0----0----0-----0-----2--2-2-2--2---
-----------0--0--0--0-0-0--0--0-----0------------------------0--0--0-0-0--0---
------------------------------------------------------------------------------
  andU        Uwonder U                                              U        

-----0-----3-----2-----2--2-2-2--0-0---3--3-3-3--3-----0-----7-------5-----3--
-----1-----3-----3-----3--3-3-3--1-1---1--1-1-1--1-----1-----8-------7-----5--
-----0-----2-----2-----2--2-2-2--0-0---2--2-2-2--2-----0-----9-------7-----5--
-----2-----0--0-----0--0--0-0-0--2-2---2--2-2-2--2-----2---------0------0-----
--0-----0------------------------0-0---0--0-0-0--0--0-----0-------------------
------------------------------------------------------------------------------
              Oh,.......    U      U        U                                 

-----5------------------------------------------------------------------------
-----7-----------------1-----------3--0---------------1------------------1----
-----7--------------0-----------0--------2---------2------------------0-------
--0-----0--------2-----------0-----------------2-------------------2----------
-----------0--3-----------2-----------0-----0-------------0--2--3-------------
------------------------------------------------------------------------------
                Your    hum-ming    won't     case   know           pip-er's  

------------------------------------------------------------------------------
-3--------1--1-----------------1-----------3--0--------------1----------------
-------0--2--2--------------0-----------0--------2--------2-------------------
----0-----2--2-----------2-----------0-----------------2-----------------2----
-------------0--0--2--3-----------2-----------0-----0-----------0--2--3-------
-2--------1-------------------------------------------------------------------
          join-him     Dear lady            wind blow                     st  

------------------------------------------------------2-----------------------
----1--3--------1--1----------------------------------3-----------------------
-0-----------0--2--2----------------0-----------0-----2-----------------------
----------0-----2--2-------------2-----------0--------0-----------------------
-------2-----------0----0--2--3--------3--2--------2--------------------------
------------------------------------------------------------------------------
 airway            wind?                  Oh,........... (Sorry, no solo!)    

--------------------5-5-----------3-3-----------1-1--1-1--1---3-3-------------
--------------------5-5-----------3-3-----------1-1--1-1--1---3-3-------------
--------------------5-5-----------4-4-----------2-2--2-2--2---4-4-------------
--------------------7-7-----------5-5-----------3-3--3-3--3---5-5-------------
--------------------7-7-----------5-5-----------3-3--3-3--3---5-5-------------
--------------------5-5-----------3-3-----------1-1--1-1--1---3-3-------------
 (after solo)  (Am) D D  [rest](G)D D  [rest](F)D U  U D  U(G)D D   (you      

---------------------------------------------------------------5-5------------
---------------------------------------------------------------5-5------------
---------------------------------------------------------------5-5------------
---------------------------------------------------------------7-7------------
---------------------------------------------------------------7-7------------
---------------------------------------------------------------5-5------------
 will need to play that part 7 times and then this comes) (Am) D D [rest] (G) 

-3-3-------0--0-0--0-0-0-0-0-0-0-----5-5--------3-3-------1-1-1-1-1-1-1-1-1---
-3-3-------1--1-1--1-1-1-1-1-1-1-----5-5--------3-3-------2-2-2-2-2-2-2-2-2---
-4-4-------2--2-2--2-2-2-2-2-2-2-----5-5--------4-4-------2-2-2-2-2-2-2-2-2---
-5-5-------2--2-2--2-2-2-2-2-2-2-----7-7--------5-5-------2-2-2-2-2-2-2-2-2---
-5-5-------x--x-x--x-x-x-x-x-x-x-----7-7--------5-5-------x-x-x-x-x-x-x-x-x---
-3-3-------1--1-1--1-1-1-1-1-1-1-----5-5--------3-3-------1-1-1-1-1-1-1-1-1---
 D D(Fmaj7)D  D D  U D U D D U D (Am)D D [rest] D D(Fmaj7)U D D U D U D D U   

-1------------------------------------------------------------------5-5--5----
-2------------------------------------------------------------------5-5--5----
-2------------------------------------------------------------------5-5--5----
-2------------------------------------------------------------------7-7--7----
-x------------------------------------------------------------------7-7--7----
-1------------------------------------------------------------------5-5--5----
 D (<---earlier: to be a rock and not to roll....) (outro stuff)(Am)D D  D  ( 

---3-3--3----1-1-1-1-1-1-1-1---3------------------------------5-5-5---3-3-3---
---3-3--3----1-1-1-1-1-1-1-1---3------------------------------5-5-5---3-3-3---
---4-4--4----2-2-2-2-2-2-2-2---4------------------------------5-5-5---3-3-3---
---5-5--5----3-3-3-3-3-3-3-3---5------------------------------7-7-7---5-5-5---
---5-5--5----3-3-3-3-3-3-3-3---5------------------------------7-7-7---5-5-5---
---3-3--3----1-1-1-1-1-1-1-1---3------------------------------5-5-5---3-3-3---
 G)D D  D (F)D D D U D U D D(G)D (play 3 times and then..)(Am)D D D(G)D D D   

----------0-------------------------------------------------------------------
----------1-------------------------------------------------------------------
----------2-------------------------------------------------------------------
----------3-------------------------------------------------------------------
------------------------------------------------------------------------------
------------------------------------------------------------------------------
 (Freely)   And she's buy - ing a stair - way     to heav - en.               

------------------------------------------------------------------------------
------------------------------------------------------------------------------
------------------------------------------------------------------------------
------------------------------------------------------------------------------
------------------------------------------------------------------------------
------------------------------------------------------------------------------
             Alright, that's it! Enjoi!  Tab#1.....next tab: Black Dog        

------------------------------------------------------------------------------
------------------------------------------------------------------------------
------------------------------------------------------------------------------
------------------------------------------------------------------------------
------------------------------------------------------------------------------
------------------------------------------------------------------------------
                                                                              







LED ZEPPELIN Chords - stairway to heaven4 Tabs, Tab for Guitar

Site contains LED ZEPPELIN tabs (tablatures), chords, song lyrics of popular songs, compilations.
You may find stairway to heaven4 - LED ZEPPELIN tab, lyric, free tabs for guitars and basses here.


© 2002 TabPower.com All tabs are the author's own work and represents their interpretation of the LED ZEPPELIN song.
You may only use this LED ZEPPELIN tab for private study, scholarship, or research.
stairway to heaven4 Tab by LED ZEPPELIN Tabs/Chords/Tablatures
Online Guitar Lessons