RED HOT CHILI PEPPERS Tabs, by the way4
Search tabs by artist/band name or song title:  

RED HOT CHILI PEPPERS Tabs - by the way4 Guitar Tablatures, Chords






by the way4 tabs @ 911Tabs
#----------------------------------PLEASE NOTE----------------------------------#
# This file is the author's own work and represents their interpretation of the #
# song. You may only use this file for private study, scholarship, or research. #
#-------------------------------------------------------------------------------#


SONG:  By The Way
ARTIST:  Red Hot Chili Peppers
ALBUM:  By The Way (2002)
Tabbed by:  Lance Mohesky


*****************************************************
Ok, a lot of tabs just tab the main bass line or rythym.  I've tried to tab
the actual song along with the melody.  It's more accurate than any tab
out there right now.  Have fun!
*****************************************************

Standard Tuning - EADGBe

Intro - F C Am

e--------------------------------------------------------------------------|
B--------------------------------------------------------------------------|
G--------------------------------------------------------------------------|
D-3-3-3-3-3-3-3-3--2-2-2-2-2-2-2-2--2-2-2-2-2-2-2-2-2-2-2-2-2-2-2-2----|    Repeat over verse
A-------------------3-3-3-3-3-3-3-3--0-0-0-0-0-0-0-0-0-0-0-0-0-0-0-0----|
E-1-1-1-1-1-1-1-1---------------------------------------------------------|

This is played before the drums and bass kick in

e------------------------------------------------------------------------------------------------------------|
B------------------------------------------------------------------------------------------------------------|
G------------------------------------------------------------------------------------------------------------|
D-10-10-10-10-10-10-10-10--14-14-14-14-14-14-14-14-14-14-14-14-14-14-14-14-14-14-14-14-14-14-14-14--|
A-8---8--8--8--8---8--8--8--15-15-15-15-15-15-15-15-12-12-12-12-12-12-12-12-12-12-12-12-12-12-12-12--|
E------------------------------------------------------------------------------------------------------------|

Verse Riff - Dm (Palm muted over bassline)

e-1-x-x-x-x-x-x-x-x--
B-3-x-x-x-x-x-x-x-x--
G-2-x-x-x-x-x-x-x-x--
D-0-x-x-x-x-x-x-x-x--
A--------------------
E---------------------

Chorus - Play intro riff

Guitar solo with talk-box or wah wah

e-------------------------------
B-------------------------------
G-------------------------------
D-------------------------------
A--3^5-3^5-3^5-3^5-3^5-3^5-
E-------------------------------



There's a lot more, but you get the idea.







RED HOT CHILI PEPPERS Chords - by the way4 Tabs, Tab for Guitar

Site contains RED HOT CHILI PEPPERS tabs (tablatures), chords, song lyrics of popular songs, compilations.
You may find by the way4 - RED HOT CHILI PEPPERS tab, lyric, free tabs for guitars and basses here.


© 2002 TabPower.com All tabs are the author's own work and represents their interpretation of the RED HOT CHILI PEPPERS song.
You may only use this RED HOT CHILI PEPPERS tab for private study, scholarship, or research.
by the way4 Tab by RED HOT CHILI PEPPERS Tabs/Chords/Tablatures
Online Guitar Lessons