GOB Tabs, what the hell
Search tabs by artist/band name or song title:  

GOB Tabs - what the hell Guitar Tablatures, Chords






what the hell tabs @ 911Tabs
#----------------------------------PLEASE NOTE----------------------------------#
# This file is the author's own work and represents their interpretation of the #
# song. You may only use this file for private study, scholarship, or research. #
#-------------------------------------------------------------------------------#

------------------------------------------------------------------------------- 
WHAT THE HELL - Gob 
------------------------------------------------------------------------------- 

The bass does a little line at first then the rhythm strikes this chord. 
It's a high F# 
e|--------| 
B|--------| 
G|--11----| 
D|--11----| 
A|--9-----| 
E|--------| 

During the lead riff (A) the rhythm guitar plays this. 
e|-----------------------------------------------------------------| 
B|-----------------------------------------------------------------| 
G|-99999-----------66666-----------99999---66666-------------------| 
D|-99999---77777---66666---77777---99999---66666---777777----------| 
A|-77777---77777---44444---77777---77777---44444---777777----------| 
E|---------55555-----------55555-------------------555555----------| 

During the lead riff (B) the rhythm guitar plays this.The chord with the 
stars around it is a break chord where you strike it and stop for a second. 
e|------------------------| |---------------------------------| 
B|------------------------|Play |---------------------------------| 
G|-9999---6666------------|(3x) |-9999---6666---------------------| 
D|-9999---6666---777-*7*--|then... |-9999---6666---77777777----------| 
A|-7777---4444---777-*7*--| |-7777---4444---77777777----------| 
E|---------------555-*5*--| |---------------55555555----------| 

The Verse ("Give up the world...") goes like this.Both lead and rhythm 
guitars play this. 
e|--------------------------| 
B|--------------------------| 
G|--------------------------|(4x) 
D|-7777----------44444444---| 
A|-7777---2222---44444444---| 
E|-5555---0000---22222222---| 

Here's the part right before the chorus.And again both guitars play this. 
e|-----------| |---------------| 
B|-----------| |---------------| 
G|-777--999--|(3x) |-999999---*9*--| 
D|-777--999--|then... |-999999---*9*--| 
A|-555--777--| |-777777---*7*--| 
E|-----------| |---------------| 

The Chorus ("What the hell can I do?") is the same as the verse. 
As for the riffs,just take your time and practice them and you'll have them 
in no time.So get ready cause here they are... 

lead riff.(A) 
e|--------|--------------------------------------------------|--------| 
B|--------|--------------------------------------------------|--------| 
G|--------|--------------------------------------------------|--------| 
D|-77--66-|----6-7-67--6h^7p^6-4----------7-6-7-------4-6-4--|--------| 
A|--------|-7---------------------7--4444--------------------|--7777--| 
E|--------|--------------------------------------5555--------|--------| 

e|--------------------------------------------------------------------| 
B|--------------------------------------------------------------------| 
G|--------------------------------------------------------------------| 
D|-6-4---------7-6-7----4h^6-4----------------------------------------| 
A|-----7--4444--------------------------------------------------------| 
E|-------------------55-----------------------------------------------| 

lead riff.(B) 
1st time 2nd time 3rd time 4th time 
e|---------------------|-----------|-----------|-----------|----------| 
B|---------------------|-----------|-----------|-----------|----------| 
G|---------------------|-----------|-----------|-----------|----------| 
D|------4h^6------77-7-|-4h^6-4h^6-|-----------|-4h^6-4h^6-|-777-6-4--| 
A|----7------4-44------|-----------|-----------|-----------|----------| 
E|--0------------------|-----------|-2h^4-2h^4-|-----------|----------| 

The ending riff is the same as above except the 4th time of the lead 
riff.(B) is a little different.I tab it for you anyway. 

4th time 
e|---------------| 
B|---------------| 
G|---------------| 
D|-777-4-6-4-----| 
A|-----------*7*-| 
E|---------------| 

On the [*7*] the rhythm guitar ends with an E(X799XX). 

-------------------------------------------------------------------------------






GOB Chords - what the hell Tabs, Tab for Guitar

Site contains GOB tabs (tablatures), chords, song lyrics of popular songs, compilations.
You may find what the hell - GOB tab, lyric, free tabs for guitars and basses here.


© 2002 TabPower.com All tabs are the author's own work and represents their interpretation of the GOB song.
You may only use this GOB tab for private study, scholarship, or research.
what the hell Tab by GOB Tabs/Chords/Tablatures
Online Guitar Lessons