MARLEY BOB Tabs, no woman no cry
Search tabs by artist/band name or song title:  

MARLEY BOB Tabs - no woman no cry Guitar Tablatures, Chords






no woman no cry tabs @ 911Tabs
#----------------------------------PLEASE NOTE----------------------------------#
# This file is the author's own work and represents their interpretation of the #
# song. You may only use this file for private study, scholarship, or research. #
#-------------------------------------------------------------------------------#

<h5>
<pre>
no woman no cry
(live)

tune up 1/2 step 

intro

 G     C     G/B     Am    F     C     F     C  
-------              
-------  
-------  
-------  
---0-2-  
-3-----  

chorus
chords(c/intro)

no woman no cry(crowd goes yeah) 
no woman no cry

(1)no woman no cry
(2)'Ere, little darlin', don't shed no tears:
(3)Woman, little sister, don't shed no tears;

no woman no cry

verses
C  G/B  Am  F
        -8-7-8-7-5-
Said - said - said: I remember when we used to sit
In the government yard in Trenchtown,
Oba - obaserving the 'ypocrites
As they would mingle with the good people we meet.
Good friends we have, oh, good friends we've lost
Along the way.(feedback)
In this great future, you can't forget your past;
Societys eyes, I seh.

Said - said - said: I remember when-a we used to sit
In the government yard in Trenchtown.
And then Georgie would make the fire lights,
As it was logwood burnin' through the night.
Then we would cook oatmeal porridge,
Of which I'll share with you;
My feet is my only carriage,
So I've got to push on through.
But while I'm gone, I mean:


(4X)Everything's gonna be all right!
I said, everything's gonna be all right-a!
(3X)Everything's gonna be all right!

solo(chords(c/intro)

------------------------------------15-------------------------------------------------------------
-------------------13-15b17---15b17----15r13-13------------------------------13----13-----------13-
-------------12-14-------------------------------12h14-12--------------12-14-12h14-12h14p12-----12-
----10-12s14----------------------------------------------14--10h12s14-----------------------14----
-12------------------------------------------------------------------------------------------------
---------------------------------------------------------------------------------------------------

-8---4---5---6---5--------------------------------
-8----------------------8--------------------8-10-
-9-4---5---6---5----7s9---9s7-5--5-5---5-7s9------
-------------------------------------7------------
--------------------------------------------------
--------------------------------------------------

--------13-----------------------15--------------------------------------------
-13-15b----15r-13-------13-15b17----15r17-13-----8-----------------------------
------------------14-12-------------------12h14--7b9r7p5---7b~-9b-7b9r7p5----5-
---------------------------------------------------------7----------------7----
-------------------------------------------------------------------------------
-------------------------------------------------------------------------------




--------5--------------------5---------------------------------------
------5---5h8p5------------5---5h8p5---------------------------------
-7b9-------------7-5---7b9------------7-5--------------------------5-
-------------------------------------------7-5-----------------5-7---
------------------------------------------------7s5--3---3-5s7-------
-------------------------------------------------------5-------------

-8----8------------------------------------------------------------8----8-------
-8h10-8-8-------------------------------------1-------3-------5----8h10-8-8---5-
--------7h9p7-5---5-------5-7b9--7-5---5----------------------------------9p7-5-
--------------5h7-5h7p5--------------7----1s2---2-3s4---3-4s6---5---------------
--------------------------------------------------------------------------------
--------------------------------------------------------------------------------

----13----12-10-8----8-
----------------8h10-8-
-14----12----10-9------
-----------------------
-----------------------
-----------------------

(release the hounds)

</pre>
</h5>





MARLEY BOB Chords - no woman no cry Tabs, Tab for Guitar

Site contains MARLEY BOB tabs (tablatures), chords, song lyrics of popular songs, compilations.
You may find no woman no cry - MARLEY BOB tab, lyric, free tabs for guitars and basses here.


© 2002 TabPower.com All tabs are the author's own work and represents their interpretation of the MARLEY BOB song.
You may only use this MARLEY BOB tab for private study, scholarship, or research.
no woman no cry Tab by MARLEY BOB Tabs/Chords/Tablatures
Online Guitar Lessons