QUEEN Tabs, fat bottomed girls3
Search tabs by artist/band name or song title:  

QUEEN Tabs - fat bottomed girls3 Guitar Tablatures, Chords






fat bottomed girls3 tabs @ 911Tabs
#----------------------------------PLEASE NOTE----------------------------------#
# This file is the author's own work and represents their interpretation of the #
# song. You may only use this file for private study, scholarship, or research. #
#-------------------------------------------------------------------------------#

You are supposed to play this song with your guitar tuned to drop D, sorry I only know the begining right now.

---------------------------------------------------------------
----1=2-333-33--1=2-333-33-1=2-333-33--3-----------------------
----0---222-22--0---222-22-0---222-22--0------------------------------------------
--------000-00------000-00-----000-00-----------------------------------------
---------------------------------------3-2-0----------------------
-0-------------------------------------------3^------------------

2nd end
----------a ---------------------------------------------------------
-3--------f ------333333--3-33------3333------------------------------------------
-0--------t --1=2-222222--0-22--1=2-2222------------------------------------------------
----------e --0---000000--2-00--0---0000--------------------------------------------
-3--2^----r --------------3---------------5-3-0--------------------------
-------3^- ------------------------------5-3-0---------------------

Drums Start
--------------------------------------------------------------------
------33333------------------x--33-------33333--3---------------------------------
-1=2--22222----repeat twice--x--00---1=2-22222--0---------------------------------------------
-0----00000------------------x--00---0---00000--x-----------------------------------
------------------------------------------------3---2^----------------
--------------------------------------------------------3^--

                                   I was just a skinny lad...

---------------------------------------------------------------------
-----333333----------------333333333------------------------------------------------
-1=2-222222------------1=2-222222222------------------------------------------------------
-0---000000------------0---000000000------222222222--------------------------------------------
-------------5--3--0------------------3^--000000000--------------------------------
-------------5--3--0----------------------------------3^------------

--------------------------------------------------------------------
-----333333333-----------------------------------3----------------------------
-1=2-222222222--------------------2222-----------2-----------------------------------
-0---000000000--------------------0000-----2-----0----------------------------------
----------------33=555555--3--0---------3^-0-----0---------------------------------
----------------33=555555--3--0---------------3^-0---------------------

---------------------
---------------------
---------------------
---------------------
--5--3--0------------
--5--3--0------------

       I wrote this because I think that the other translations are incorrect, just to let you know.





QUEEN Chords - fat bottomed girls3 Tabs, Tab for Guitar

Site contains QUEEN tabs (tablatures), chords, song lyrics of popular songs, compilations.
You may find fat bottomed girls3 - QUEEN tab, lyric, free tabs for guitars and basses here.


© 2002 TabPower.com All tabs are the author's own work and represents their interpretation of the QUEEN song.
You may only use this QUEEN tab for private study, scholarship, or research.
fat bottomed girls3 Tab by QUEEN Tabs/Chords/Tablatures
Online Guitar Lessons