GOB Tabs, what to do2
Search tabs by artist/band name or song title:  

GOB Tabs - what to do2 Guitar Tablatures, Chords






what to do2 tabs @ 911Tabs
#----------------------------------PLEASE NOTE----------------------------------#
# This file is the author's own work and represents their interpretation of the #
# song. You may only use this file for private study, scholarship, or research. #
#-------------------------------------------------------------------------------#

Title: What To Do
Artist: Gob
Tuning: Flat (Eb, Ab, Db, Gb, Bb, eb)
Instrument: Guitar 1

INTRO
e--------------|--------------|--------------|--------------|--------------|
B-0-5-4---4-0--|0-5-4---4-----|0-5-4---4-5---|0-5-4---4-5---|0-5-4---0-0---|
G-------6------|------6-------|------6-------|------6-------|------6-------|
D--------------|----------7---|--------------|--------------|--------------|
A--------------|--------------|--------------|--------------|--------------|
E--------------|--------------|--------------|--------------|--------------|

VERSE
e|-----------------|-----------------|-----------------|-----------------|
B|-----------------|-----------------|-----------------|-----------------|
G|-4-X-X-X-X-X-X-X-|-X-X-X-X-X-X-4-4-|-----------------|-----------------|
D|-4-X-X-X-X-X-X-X-|-X-X-X-X-X-X-4-4-|-4-4-X-X-X-X-4-4-|-2-2-X-X-X-X-2-2-|
A|-2-X-X-X-X-X-X-X-|-X-X-X-X-X-X-2-2-|-4-4-X-X-X-X-4-4-|-2-2-X-X-X-X-2-2-|
E|-----------------|-----------------|-2-2-X-X-X-X-2-2-|-0-0-X-X-X-X-0-0-|
                                                                           X=palm mute
e|-----------------|-----------------|-----------------|-----------------|
B|-----------------|-----------------|-----------------|-----------------|
G|-4-X-X-X-X-X-X-X-|-X-X-X-X-X-X-4-4-|-----------------|-8/9-9-9-9-9-9-9-|
D|-4-X-X-X-X-X-X-X-|-X-X-X-X-X-X-4-4-|-4-4-X-X-X-X-4-4-|-8/9-9-9-9-9-9-9-|
A|-2-X-X-X-X-X-X-X-|-X-X-X-X-X-X-2-2-|-4-4-X-X-X-X-4-4-|-6/7-7-7-7-7-7-7-|
E|-----------------|-----------------|-2-2-X-X-X-X-2-2-|-----------------|

CHORUS
e|-----------------|-----------------|-----------------|
B|-----------------|-----------------|-----------------|
G|-4-4-4-4-4-4-4-4-|-----------------|-8/9-9-9-9-9-9-9-|
D|-4-4-4-4-4-4-4-4-|-4-4-4-4-4-4-4-4-|-8/9-9-9-9-9-9-9-|
A|-2-2-2-2-2-2-2-2-|-4-4-4-4-4-4-4-4-|-6/7-7-7-7-7-7-7-|
E|-----------------|-2-2-2-2-2-2-2-2-|-----------------|

BRIDGE
E|-----------------|-----------------|-----------------|-----------------|
B|-----------------|-----------------|-----------------|-----------------|
G|-6---6-6-6-6-6-6-|-6-6-6-6-6-6-8---|-9---9-9-9-9-9-9-|-----------------|
D|-6---6-6-6-6-6-6-|-6-6-6-6-6-6-8---|-9---9-9-9-9-9-9-|-9---9-4---4-4-4-|
A|-4---4-4-4-4-4-4-|-4-4-4-4-4-4-6---|-7---7-7-7-7-7-7-|-9---9-4---4-4-4-|
E|-----------------|-----------------|-----------------|-7---7-2---2-2-2-|

SOLO
E|-----------------|-----------------|-----------------|-----------------|
B|-----------------|-----------------|-----------------|-----------------|
G|-----------------|-----------------|-----------------|-----------------|
D|-----------------|-----------------|-----------------|-----------------|
A|-----7-7-6-6-----|-----7-7-6-6-----|-----7-7-6-6-----|-----7-7-6-6-----|
E|-7-7---------7-7-|-4-4---------4-4-|-2-2---------2-2-|-0-0---------0-0-|

Order:
INTRO
VERSE
CHORUS
INTRO
VERSE
CHORUS
BRIDGE
SOLO
BRIDGE





GOB Chords - what to do2 Tabs, Tab for Guitar

Site contains GOB tabs (tablatures), chords, song lyrics of popular songs, compilations.
You may find what to do2 - GOB tab, lyric, free tabs for guitars and basses here.


© 2002 TabPower.com All tabs are the author's own work and represents their interpretation of the GOB song.
You may only use this GOB tab for private study, scholarship, or research.
what to do2 Tab by GOB Tabs/Chords/Tablatures
Online Guitar Lessons