ROLLING STONES Tabs, brown sugar5
Search tabs by artist/band name or song title:  

ROLLING STONES Tabs - brown sugar5 Guitar Tablatures, Chords






brown sugar5 tabs @ 911Tabs
#----------------------------------PLEASE NOTE----------------------------------#
# This file is the author's own work and represents their interpretation of the #
# song. You may only use this file for private study, scholarship, or research. #
#-------------------------------------------------------------------------------#

Song: Brown Sugar
By: The Rolling Stones
Writers: Mick Jagger/ Keith Richards
Album: Sticky Fingers
Year: 1971
Tabber: evh82@yahoo.com
~~~~~~~~~~~~~~~~~~~~~~~~~~~~~~~~~~~~~~~~~~~~~~~~~~~~~~~~~~~~~~~~~~~~~

Intro:


---------------------------------------
---------------------------------------
--11----9----7--7--7--9--7-------------     *Play 3 times
--7-----7----5--5--5--5--5-------------
---------------------------------------
---------------------------------------

*Then play this at the end of the 3rd time:

--------------------------------------------------------------
--------------------------------------------------------------
---8--8---6---6--8--7--7--9--9--5--3--4--3--5--3--7--7--9--7-- *2x
---6--6--10--10--6--5--5--5--5--7--1--1--1--1--1--5--5--5--5--
--------------------------------------------------------------
--------------------------------------------------------------
~~~~~~~~~~~~~~~~~~~~~~~~~~~~~~~~~~~~~~~~~~~~~~~~~~~~~~~~~~~~~~~~~~~~~~~
Chorus: **If you have heard the song you know where to play each part**

----------------------------------------------------------
---------------------------------------------------------- *Play 2x
--------------7--7------7-----7-----7----5---------7---7-- for all of
---3--3--5----------5------5-----5----------5------5---5-- the chorus's
----------------------------------------------------------
----------------------------------------------------------
~~~~~~~~~~~~~~~~~~~~~~~~~~~~~~~~~~~~~~~~~~~~~~~~~~~~~~~~~~~~~~~~~~~~~
C
Gold coast slave ship bound for cotton fields
F
Sold in a market down in New Orleans
C
Scarred old slaver know he's doing alright
Bb                        C
Hear him whip the women just about midnight

<Chorus>
Brown Sugar, how come you taste so good
Brown Sugar, just like a young girl should

C
Drums are beating cold, English blood runs hot
F
Lady of the house wonderin' where it's gonna stop
C
Houseboy knows that he's doing alright
Bb                      C
You shoulda heard him just around midnight

<Chorus>
Brown Sugar, how come you taste so good
Brown Sugar, just like a young girl should

(Sax Solo)

<Chorus>
Brown Sugar, how come you taste so good
Brown Sugar, just like a young girl should

C
I bet your mama was a tent show queen
F
And all her boyfriends were sweei sixteen
C
I'm no school boy but I know what I like
Bb                    C
You shoulda heard me just around midnight

<Chorus>
Brown Sugar, how come you taste so good
Brown Sugar, just like a young girl should

(Play chorus tab for this part below)

I said yeah, yeah, yeah, woo! How come you taste so good?
Yeah, yeah, yeah, woo! * Repeat twice*





ROLLING STONES Chords - brown sugar5 Tabs, Tab for Guitar

Site contains ROLLING STONES tabs (tablatures), chords, song lyrics of popular songs, compilations.
You may find brown sugar5 - ROLLING STONES tab, lyric, free tabs for guitars and basses here.


© 2002 TabPower.com All tabs are the author's own work and represents their interpretation of the ROLLING STONES song.
You may only use this ROLLING STONES tab for private study, scholarship, or research.
brown sugar5 Tab by ROLLING STONES Tabs/Chords/Tablatures
Online Guitar Lessons