LED ZEPPELIN Tabs, tangerine2
Search tabs by artist/band name or song title:  

LED ZEPPELIN Tabs - tangerine2 Guitar Tablatures, Chords






tangerine2 tabs @ 911Tabs
#----------------------------------PLEASE NOTE----------------------------------#
# This file is the author's own work and represents their interpretation of the #
# song. You may only use this file for private study, scholarship, or research. #
#-------------------------------------------------------------------------------#

ARTIST: Led Zeppelin
TITLE : Tangerine
TAB   : Bjoern Elsner

INTRO:

Am - G - D - G5 - Am - G - D - C

G/B(Fill'1) - Am - G5/D - D - Dsus4 - D - Dsus2 - D


VERSE 1:
Am	     G	     D		
Measuring a summers day 
Am	G	     D	   C          G/B(Fill'1)  Am
I only find it slips away to grey		
       G5/D           D        Dsus4  D Dsus2 D   C  D  G	 
The hours, they bring me pain



CHORUS:
G      D C           D  G 	      D    C            D	   	
Tangerine   tangerine    Living reflections from a dream
            D    C               D    G
I was her love, oh, she was my queen
                         Dsus4        D Dsus4  D
And now a thousand years      between



VERSE 2:
Am               G    D      G5
Thinking how it used to be
Am              G     D        C           G/B
Does she still remember times like these?
Am        G5/D  D      C   D
 To think of us again         and I do


SOLO
  Am    C              D		F 	      E	
------------------------------------------------------------------------
-8/10---10/13--15/17---17\15--15--13\12/13----13/15---15\-----11/12-----
--------------------------------------------------------------11/12-----
------------------------------------------------------------------------
------------------------------------------------------------------------
------------------------------------------------------------------------

 F		    E                  F      C			     G	
-----------------------------------------------------15\17--17\15~~-----
-12--12--13/15--12\10/12----12--12--12--13/15---------------------------
------------------------------------------------------------------------
------------------------------------------------------------------------
------------------------------------------------------------------------
------------------------------------------------------------------------

 G			   D      G   D        G      D     C      D   G  
-17/19--17/19--17/19---19\17~~---17--19/20--19/20---20/22--(22)\--------
------------------------------------------------------------------------
------------------------------------------------------------------------
------------------------------------------------------------------------
------------------------------------------------------------------------
------------------------------------------------------------------------


CHORUS

FILLS:


Fill'1

------------------------
--------0--0-------0--0-
------2----------0------
----3----------2--------
------------------------
------------------------


CHORUSFILL ( Country Electric Guitar / CHORUS1)

---------------------------------------------------
------8--7/8----8--8b----7b------8------8--7-------
--------------7----7b------------7-----------------
---------------------------------7b------------7---
-------------------------------------------------9-
---------------------------------------------------
      Tangerine______ tangerine	 Living reflections

-----------------------------------------------------------------------
-8b------8b------------8-------8-----7-8---------8b--------8b----------
-7b------7b------------7-------------------7-----7b--------7b----------
-----------------------7b----------------------------------------------
-----------------------------------------------------------------------
-----------------------------------------------------------------------
    from a  dream       I was her love,    oh______she was my queen

------------------------------------------------------------------------
-8----8--------8--8------8b----------8----8--8---7----8--8---7----------
-7---------7-----------7-7b----------7----7--7---7----7--7---7----------
-7/9--------------------------------------------------------------------
------------------------------------------------------------------------
------------------------------------------------------------------------
  And now  a   thousand  years     between





LED ZEPPELIN Chords - tangerine2 Tabs, Tab for Guitar

Site contains LED ZEPPELIN tabs (tablatures), chords, song lyrics of popular songs, compilations.
You may find tangerine2 - LED ZEPPELIN tab, lyric, free tabs for guitars and basses here.


© 2002 TabPower.com All tabs are the author's own work and represents their interpretation of the LED ZEPPELIN song.
You may only use this LED ZEPPELIN tab for private study, scholarship, or research.
tangerine2 Tab by LED ZEPPELIN Tabs/Chords/Tablatures
Online Guitar Lessons