LED ZEPPELIN Tabs, kashmir4
Search tabs by artist/band name or song title:  

LED ZEPPELIN Tabs - kashmir4 Guitar Tablatures, Chords






kashmir4 tabs @ 911Tabs
#----------------------------------PLEASE NOTE----------------------------------#
# This file is the author's own work and represents their interpretation of the #
# song. You may only use this file for private study, scholarship, or research. #
#-------------------------------------------------------------------------------#

Song: Kashmir
By Led Zeppelin
Tabed by:Robert M (acdcdoors5@aol.com)
I love you colleen


e|------------------------------------------------|
B|------------------------------------------------|
G|*-2-2-2--2-2-2---3-3-3--3-3-3---4-4-4--4-4-4----|
D|*-0-0-0--0-0-0-0-0-0-0--0-0-0-0-0-0-0--0-0-0----|
A|------------------------------------------------|
E|------------------------------------------------|

e|----------------------------|
B|----------------------------|
G|-5-5-5--5-5-5---7-7-7------*|
D|-0-0-0--0-0-0-0-0-0-0--0---*|
A|----------------------------|
E|----------------------------|





LED ZEPPELIN Chords - kashmir4 Tabs, Tab for Guitar

Site contains LED ZEPPELIN tabs (tablatures), chords, song lyrics of popular songs, compilations.
You may find kashmir4 - LED ZEPPELIN tab, lyric, free tabs for guitars and basses here.


© 2002 TabPower.com All tabs are the author's own work and represents their interpretation of the LED ZEPPELIN song.
You may only use this LED ZEPPELIN tab for private study, scholarship, or research.
kashmir4 Tab by LED ZEPPELIN Tabs/Chords/Tablatures
Online Guitar Lessons