RED HOT CHILI PEPPERS Tabs, blood sugar sex magik2
Search tabs by artist/band name or song title:  

RED HOT CHILI PEPPERS Tabs - blood sugar sex magik2 Guitar Tablatures, Chords






blood sugar sex magik2 tabs @ 911Tabs
#----------------------------------PLEASE NOTE----------------------------------#
# This file is the author's own work and represents their interpretation of the #
# song. You may only use this file for private study, scholarship, or research. #
#-------------------------------------------------------------------------------#

Blood sugar sex majik -Red hot chilli peppers

Play 4x	e---------------------------------------------
	b---------------------------------------------
	g---------------------------------------------
	d-2-5-7/9-5/7-----xxx-2-4-5/7-4/5-----xxx-----
	a-0-3-5/7-3/5-5/7-xxx-0-2-3/5-2/3-4/5-xxx-----
	e-------------3/5-xxx-------------2/3-xxx-----

Play for both 1st and 2nd verses with wah pedal

	d-2----------------------------------
	a-0----------------------------------
	e------------------------------------
Work the picking out yourself(a and d strings only)


This next part is played in the chorus and throughout the song

	d---2-0-2-0--------2-0-2---------
	a-----------2-1-0----------0-4-5-
	e-0---------------0------3-------

At the end of the first verse only, this part is played

	e--8------12-----
	b--9------12-----
	g-10--7x -12--5x-
	d-10------12-----
	a--8------10-----
	e--8------10-----


Fill
	e--------------------------------------
	b-------8--------------8h10-------------
	g-9-7-9---9-7-9--9-7-9------9-7-9---------
	d----------------------------------------
	a-----------------------------------------
	e-----------------------------------------

The solo is in e and you can work it out

	
If you have anything else to add or correct please email me at
rmcurnow@cobweb.com.au as the previous posted tab is the only
one on the net and it is very poor. Thanks

			RYAN CURNOW












RED HOT CHILI PEPPERS Chords - blood sugar sex magik2 Tabs, Tab for Guitar

Site contains RED HOT CHILI PEPPERS tabs (tablatures), chords, song lyrics of popular songs, compilations.
You may find blood sugar sex magik2 - RED HOT CHILI PEPPERS tab, lyric, free tabs for guitars and basses here.


© 2002 TabPower.com All tabs are the author's own work and represents their interpretation of the RED HOT CHILI PEPPERS song.
You may only use this RED HOT CHILI PEPPERS tab for private study, scholarship, or research.
blood sugar sex magik2 Tab by RED HOT CHILI PEPPERS Tabs/Chords/Tablatures
Online Guitar Lessons