GUNS N ROSES Tabs, back off bitch2
Search tabs by artist/band name or song title:  

GUNS N ROSES Tabs - back off bitch2 Guitar Tablatures, Chords






back off bitch2 tabs @ 911Tabs
#----------------------------------PLEASE NOTE----------------------------------#
# This file is the author's own work and represents their interpretation of the #
# song. You may only use this file for private study, scholarship, or research. #
#-------------------------------------------------------------------------------#

e--------------0--------0---------------------------------------------
B--------------0------------------------------------------------------
G-----------------2b^(3)--2^r-0---------------------------------------
D-2p0---------------------------2-0-2-2/4-4-4/5-5-5/7-7-7/9-9-9/12----
A----2p0--------------------------------------------------------------
E-------3b^r0---------------------------------------------------------

e----------------------------------------------------15-17-15-17b^18--
B--------------14-14---------------------------14h16------------------
G--------------14-14-12----12\0-------12h14/16------------------------
D-12-12/14-14-----------14-14\0-12h14---------------------------------
A---------------------------------------------------------------------
E---------------------------------------------------------------------

At the end, bend the "17" up and hold it for 2 counts, then bend it 
eight more times, then bend it and hold it for a measure as it fades 
into the song.





GUNS N ROSES Chords - back off bitch2 Tabs, Tab for Guitar

Site contains GUNS N ROSES tabs (tablatures), chords, song lyrics of popular songs, compilations.
You may find back off bitch2 - GUNS N ROSES tab, lyric, free tabs for guitars and basses here.


© 2002 TabPower.com All tabs are the author's own work and represents their interpretation of the GUNS N ROSES song.
You may only use this GUNS N ROSES tab for private study, scholarship, or research.
back off bitch2 Tab by GUNS N ROSES Tabs/Chords/Tablatures
Online Guitar Lessons