RADIOHEAD Tabs, airbag2
Search tabs by artist/band name or song title:  

RADIOHEAD Tabs - airbag2 Guitar Tablatures, Chords






airbag2 tabs @ 911Tabs
#----------------------------------PLEASE NOTE----------------------------------#
# This file is the author's own work and represents their interpretation of the #
# song. You may only use this file for private study, scholarship, or research. #
#-------------------------------------------------------------------------------#

this is the intro
e---------------------------------------------------------------
b---------------------------------------------------------------
g--------------------------------------------------------------6
d--------------------------------------------------------------7
a--------------------------------------------------------------0
E--0-1-1-1/8-7-9-5--0-1-1-1/8-7-5-9-12-13-8-7-9-5-0-1-1-1/8-7---


e------------------------------------------------
b------------------------------------------------
g-6-6-6-6-6-6-8-8-8-8-8-8-7-7-7-7-7-7-7-7-7-7-7-7
d-7-7-7-7-7-7-7-7-7-7-7-7-7-7-7-7-7-7-7-7-7-7-7-7
a-0-0-0-0-0-0-0-0-0-0-0-0-0-0-0-0-0-0-0-0-0-0-0-7
e------------------------------------------------
I think thats right then as follows
for the little cool bit

e---------------
b---------------
g-9--7-6--7-6-6-
d-------------7-
a-------------0-
e---------------

thats all i got check another file for the chorus
but the rest is right


any comments email me

Chairman@silverchair.org





RADIOHEAD Chords - airbag2 Tabs, Tab for Guitar

Site contains RADIOHEAD tabs (tablatures), chords, song lyrics of popular songs, compilations.
You may find airbag2 - RADIOHEAD tab, lyric, free tabs for guitars and basses here.


© 2002 TabPower.com All tabs are the author's own work and represents their interpretation of the RADIOHEAD song.
You may only use this RADIOHEAD tab for private study, scholarship, or research.
airbag2 Tab by RADIOHEAD Tabs/Chords/Tablatures
Online Guitar Lessons