RED HOT CHILI PEPPERS Tabs, by the way
Search tabs by artist/band name or song title:  

RED HOT CHILI PEPPERS Tabs - by the way Guitar Tablatures, Chords






by the way tabs @ 911Tabs
#----------------------------------PLEASE NOTE----------------------------------#
# This file is the author's own work and represents their interpretation of the #
# song. You may only use this file for private study, scholarship, or research. #
#-------------------------------------------------------------------------------#

Title: By The Way
Author: Red Hot Chili Peppers
Album: By the Way
Tab by: Chris Valente
Email: RedHotMetallica@aol.com

Bass tab... Drop-D tuning... wierd song... i think this is correct.
Remember to use a pick.

Intro

G--15-15-15-15-15-15-15-15-15-15-15-15-15-15-15-15-------
D--13-13-13-13-13-13-13-13-12-12-12-12-12-12-12-12-------
A--------------------------------------------------------
E--------------------------------------------------------
	Standing in line....
G--9-9-9-9-9-9-9-9-9-9-9-9-9-9-9-9-----------------------
D--7-7-7-7-7-7-7-7-7-7-7-7-7-7-7-7-----------------------
A--------------------------------------------------------
E--------------------------------------------------------

On the second time you repeat this slide from 7 to 13

Verse

G--------------------------------------------------------
D-------------3------------------------------------------
A-------0h3h5---0h3h5------------------------------------
E--0-0----------------3-5--------------------------------

Do that ^ 3 times then the below 

G--------------------------------------------------------
D-------------3------------------------------------------
A-------0h3h5---5^---------------------------------------
E--0-0---------------------------------------------------

Do the verse a bunch of times.

Chorus

G--------------------------------------------------------
D--3-333-3-/-10-101010-/-12-121212-12--12-121212-12p10---
A-----------------------------------------------------12-
E--------------------------------------------------------

G--------------------------------------------------------
D--3-333-3-/-10-101010-/-7-777-7-7-7-7-777-77-----10--10-
A--------------------------------------------------------
E--------------------------------------------------------

Outro bass plays nothing

Pretty damn good tab, I think! Considering the short
amount of time and all. Anyway peace, Peppers always rock.





RED HOT CHILI PEPPERS Chords - by the way Tabs, Tab for Guitar

Site contains RED HOT CHILI PEPPERS tabs (tablatures), chords, song lyrics of popular songs, compilations.
You may find by the way - RED HOT CHILI PEPPERS tab, lyric, free tabs for guitars and basses here.


© 2002 TabPower.com All tabs are the author's own work and represents their interpretation of the RED HOT CHILI PEPPERS song.
You may only use this RED HOT CHILI PEPPERS tab for private study, scholarship, or research.
by the way Tab by RED HOT CHILI PEPPERS Tabs/Chords/Tablatures
Online Guitar Lessons