QUEEN Tabs, god save the queen4
Search tabs by artist/band name or song title:  

QUEEN Tabs - god save the queen4 Guitar Tablatures, Chords






god save the queen4 tabs @ 911Tabs
#----------------------------------PLEASE NOTE----------------------------------#
# This file is the author's own work and represents their interpretation of the #
# song. You may only use this file for private study, scholarship, or research. #
#-------------------------------------------------------------------------------#

Title: God Save The queen 
Artist: Brian May
Album: Party At the Palace 


Here's the live version of the song  

------------------------------------------------------------------------------------------
-----13v---15--12-13v-15-17--17-18-17-15-13-15-13-12-13v----------------------------------
------------------------------------------------------------------------------------------
------------------------------------------------------------------------------------------
------------------------------------------------------------------------------------------
------------------------------------------------------------------------------------------

------------------------------------------------------------------------------------------
----10-12---10-12-13---12-13-15---13-15-17------------------------------------------------
-12---------------------------------------------------------------------------------------
------------------------------------------------------------------------------------------
------------------------------------------------------------------------------------------
------------------------------------------------------------------------------------------
                                                                              
------------------------------------------------------------------------------------------
-17--17--17--17---15-14---15--15--15--15--------------------------------------------------
------------------------------------------------------------------------------------------
------------------------------------------------------------------------------------------
------------------------------------------------------------------------------------------
------------------------------------------------------------------------------------------

------------------------------------------------------------------------------------------ 
-13-12-10-----10h12--13--12--10-----10/12--12/13--15---17-15-13-12-10---------------------
-----------12-------------------12--------------------------------------12----------------
------------------------------------------------------------------------------------------
------------------------------------------------------------------------------------------
------------------------------------------------------------------------------------------

Tabbed By Marco Mazza Aprildog@virgilio.it





QUEEN Chords - god save the queen4 Tabs, Tab for Guitar

Site contains QUEEN tabs (tablatures), chords, song lyrics of popular songs, compilations.
You may find god save the queen4 - QUEEN tab, lyric, free tabs for guitars and basses here.


© 2002 TabPower.com All tabs are the author's own work and represents their interpretation of the QUEEN song.
You may only use this QUEEN tab for private study, scholarship, or research.
god save the queen4 Tab by QUEEN Tabs/Chords/Tablatures
Online Guitar Lessons