MEGADETH Tabs, go to hell
Search tabs by artist/band name or song title:  

MEGADETH Tabs - go to hell Guitar Tablatures, Chords






go to hell tabs @ 911Tabs
#----------------------------------PLEASE NOTE----------------------------------#
# This file is the author's own work and represents their interpretation of the #
# song. You may only use this file for private study, scholarship, or research. #
#-------------------------------------------------------------------------------#

 
FROM: jamesj@svpal.org
 
 
                                 MEGADETH
                                GO TO HELL  
         Bill & Ted's Bogus Journey/Hidden Treasures/Numerous Singles  
 
Heres parts of the song that I know, it may help you out some.
 
 
 
I'll even throw in the bass intro


BASS GUITAR 
|-----|----------------------------------------------------------------| 
|-----|----------------------------------------------------------------| 
|-----|----------------------------------------------------------------| 
|---2-|---2-2-2-2-2---2---2-----3-----3--3--3--3---2---2-2-2-2-2--2--2-| 

BASS GUITAR
|--------------------------| 
|--------------------------| 
|--------------------------| 
|---1----1-1-1-1-------2\--| 
                                                
                
 
Ok
       P.M.......        ...............               ...........
|----------------------------------------------------------------------| 
|----------------------------------------------------------------------| 
|----------------------------------------------------------------------| 
|----------------------------------------------------------------------| 
|---2--------------/7~~~-----2-------------/6~~~~----2--------------/5~| 
|-------3--2--1-----------------3--2--1-----------------3---2--1-------| 
                                
    ..........                ...........       
|----------------------------------------------------------------------| 
|------------------------------------------------------------------5---| 
|------------------------------------------------------3---5---7-------| 
|---------------------------------------------2----5-------------------| 
|-2-------------/4~~~~-----2---------------3---------------------------| 
|----3---2--1------------------3---2---1-------------------------------| 
                                                
                                                  ??????????????????
|--6--7---6--7---6--7---6--7----6----7--5------------------------------| 
|--------------------------------------------7---4---------------------| 
|-----------------------------------------------------7--4-------------| 
|-------------------------------------------------------------5--4--2~~| 
|----------------------------------------------------------------------| 
|----------------------------------------------------------------------| 
                                                 
             P.M.                         P.M.
|----------------------------------------------------------------------| 
|----------------------------------------------------------------------| 
|----------0----------------------------0------------------------------| 
|-------4----------4---2-------------4----------4---2------------------| 
|----2---------3-----------3------4---------0----------3---------------| 
|-0----------------------------0---------------------------------------| 
                                                        
           P.M.             P.M...               P.M.......
|----------------------------------------------------------------------| 
|----------------------------------------------------------------------| 
|-------0------------------------------0-------------------------------| 
|-----4----------4---2--------------4----------------------------------| 
|---2--------3----------3-------1--------------2-----------------------| 
|-0--------------------------2--------------------3--2---1-------------| 
                                                          
       P.M.......    ...            ...........   ...
|----------------------------------------------------------------------| 
|----------------------------------------------------------------------| 
|----------------------------------------------------------------------| 
|--2---------------2-----2/3------2--------------2------2\1------------| 
|--2---------------2-----2/3--3---2--------------2------2\1------------| 
|--0----0-0-0-0-0-----0-------1---0---0-0-0-0-0-----0------------------| 
                                                                            
   P.M.....           P.M......         P.M....         P.M....
|----------------------------------------------------------------------| 
|----------------------------------------------------------------------| 
|----------------------------------------------------------------------| 
|----------------------------------------------------------------------| 
|-2-----------/7~---2-----------/6~---2----------/5---2----------/4-~~-| 
|---3--2--1------------3--2--1----------3--2--1----------3-2-1---------| 
                                                
     P.M.......      Full         A.H...................
|----------------------------------------------------------------------| 
|----------------------------------------------------------------------| 
|--------------------2^-----2^-2^---2^---2^--2^--2^----2---------------| 
|----------------------------------------------------------------------| 
|-2--------------------------------------------------------------------| 
|----3---2---1----------------------------------------------12\--------| 
                                                               
 P.M........      P.M.........   P.M....     P.M....
|----------------------------------------------------------------------| 
|----------------------------------------------------------------------| 
|----------------------------------------------------------------------| 
|--------------2---------------3----------0-----------5--4--3----------| 
|--------------2---------------3----------0-----------5--4--3----------| 
|-0--0---0--0------0--0--0--0-----0-0-0-0----0-0-0-0-------------------| 
                                                             
     
Pick Scrape
|---------------|
|---------------|
|---------------|
|---------------|
|--X/-----------|
|--X/-----------|

 P.M....    ........    ....      .....         ...........
|----------------------------------------------------------------------| 
|----------------------------------------------------------------------| 
|----------------------------------------------------------------------| 
|---------2-----------3-------6-----------------------------5--5--4--3-| 
|---------2-----------3-------6------------3--2------------5---5--4--3-| 
|-0-0-0-0----0-0-0-0------0---------0--5----------5--4--3--------------| 
                                                

ok now part before Dave/Marty solo switchoff
    P.M.     ..                 ...         .....    ...
|----------------------------------------------------------------------| 
|----------------------------------------------------------------------| 
|----------------------------------------------------------------------| 
|-2--------2-----3-/--5---0---2--0--2/3---2--------2-----5--/--7---5---| 
|-2--------2-----3-/--5---0---2--0--2/3---2--------2-----5--/--7---5---| 
|----0--0-----0------------------------------0--0-----0----------------| 

          P.M....
|----------------------------------------------------------------------| 
|----------------------------------------------------------------------| 
|----------------------------------------------------------------------| 
|--0---2-----0---2/3---------------------------------------------------| 
|--0---2-----0---2/3---------------------------------------------------| 
|----------------------------------------------------------------------| 
                    








MEGADETH Chords - go to hell Tabs, Tab for Guitar

Site contains MEGADETH tabs (tablatures), chords, song lyrics of popular songs, compilations.
You may find go to hell - MEGADETH tab, lyric, free tabs for guitars and basses here.


© 2002 TabPower.com All tabs are the author's own work and represents their interpretation of the MEGADETH song.
You may only use this MEGADETH tab for private study, scholarship, or research.
go to hell Tab by MEGADETH Tabs/Chords/Tablatures
Online Guitar Lessons