BLINK 182 Tabs, 21 days
Search tabs by artist/band name or song title:  

BLINK 182 Tabs - 21 days Guitar Tablatures, Chords






21 days tabs @ 911Tabs
#----------------------------------PLEASE NOTE----------------------------------#
# This file is the author's own work and represents their interpretation of the #
# song. You may only use this file for private study, scholarship, or research. #
#-------------------------------------------------------------------------------#

standard tuning(EADGBE)

chords:
   D5   A5   G5   F#5  E5
E------------------------
B------------------------
G--7-------------------9-
D--7----7----5----4----9-
A--5----7----5----4----7-
E-------5----3----2------

riff 1(clean tone 4x, then distorted 2x)
E-----------------------------------
B-----------------------------------
G-2/11-7-7-7-11-11---2/11-9-9-9-7-7-
D-----------------------------------
A-----------------------------------
E-----------------------------------

1st verse
D5                     A5            G5                    F#5
My mind wanders as I,m trying not to fall in love with you
D5                 A5      G5               E5
'Cause everytime I wake I ponder on my mistakes of
D5                 A5        G5                      F#5
what I said, it is always my esteem that I sure lose
D5                   A5       G5              E5
playing those stupid games as I always end up chasing you

riff 1 2x

chorus
E5           G5        D5
I can't help myself anymore
E5            G5                 D5
rehearsing my thoughts as I,m to scared to come to your door
E5              G5         D5
I pushed it all aside just stand next to you
E5                    G5               D5 Db5 B5 A5
Now you won't talk to me for something I didn't do

D5                   D5(strum once, distortion fades out)
It's not going to work

riff 2 2x
E-------------------------------------------------------------
B-------------------------------------------------------------
G-------------------------------------------------------------
D-------------------------------------------------------------
A-5-5-5-5-5-5-5-5-5-5-5-5-5-5-7-7-7-7-7-7-7-7-9-9-9-9-5-5-5-5-
E-------------------------------------------------------------

2nd verse w/riff 2

And I'm trying not to think of you

I'm all confused as I think of the things that I should do

I'm all shook up as I get all nervous inside

My emotions are something that I will always hide (away)


outro (clean tone 2x, then distorted 8x)
E------------------------------------
B------------------------------------
G-7-9-11-12-11-9---7-9-11-9-7-7------
D------------------------------------
A------------------------------------
E------------------------------------

thats it. enjoy!!!!!





BLINK 182 Chords - 21 days Tabs, Tab for Guitar

Site contains BLINK 182 tabs (tablatures), chords, song lyrics of popular songs, compilations.
You may find 21 days - BLINK 182 tab, lyric, free tabs for guitars and basses here.


© 2002 TabPower.com All tabs are the author's own work and represents their interpretation of the BLINK 182 song.
You may only use this BLINK 182 tab for private study, scholarship, or research.
21 days Tab by BLINK 182 Tabs/Chords/Tablatures
Online Guitar Lessons