LED ZEPPELIN Tabs, stairway to heaven5
Search tabs by artist/band name or song title:  

LED ZEPPELIN Tabs - stairway to heaven5 Guitar Tablatures, Chords






stairway to heaven5 tabs @ 911Tabs
#----------------------------------PLEASE NOTE----------------------------------#
# This file is the author's own work and represents their interpretation of the #
# song. You may only use this file for private study, scholarship, or research. #
#-------------------------------------------------------------------------------#

led zeppelin
by paul dunn yep dunnzy fae cleland

hammer*

pull^

                       (any commplantes pablod12@hotmail.com)                                      

-----------5-----7--------7----8---------8-------------
--------5------------5-------------5------------------
-----5-----------------5--------------5---------------
---7-------------6-------------5----------------------
----------------------------------------------------
----------------------------------------------------



---2---------2-------0--------0------*-------------------
-------3----------------1------------0-----------------
----------2----------------2---------2------------------
---4-----------------3---------------2------------------
-------------------------------------0---0----0--------
----------------------------------------------------


                                            ^
-------------0----3---------0----3------3---3--3--3---------------
----------------------0-------------3-----------------------
----------0--------------0------------2----------------------
--------2------------------------0----------0--0--0------------
--2---3------------------------------------------------------
------------------3-----------------------------------------





LED ZEPPELIN Chords - stairway to heaven5 Tabs, Tab for Guitar

Site contains LED ZEPPELIN tabs (tablatures), chords, song lyrics of popular songs, compilations.
You may find stairway to heaven5 - LED ZEPPELIN tab, lyric, free tabs for guitars and basses here.


© 2002 TabPower.com All tabs are the author's own work and represents their interpretation of the LED ZEPPELIN song.
You may only use this LED ZEPPELIN tab for private study, scholarship, or research.
stairway to heaven5 Tab by LED ZEPPELIN Tabs/Chords/Tablatures
Online Guitar Lessons