NIRVANA Tabs, about a girl4
Search tabs by artist/band name or song title:  

NIRVANA Tabs - about a girl4 Guitar Tablatures, Chords






about a girl4 tabs @ 911Tabs
#----------------------------------PLEASE NOTE----------------------------------#
# This file is the author's own work and represents their interpretation of the #
# song. You may only use this file for private study, scholarship, or research. #
#-------------------------------------------------------------------------------#

About A Girl
Tune Down 1/2 a step intro
e--0---0--0----3--3-------0--------3--3---------0--------3--3----------------    
b--0---0--0----0--0--0----0--0-----0--0---0-----0--0-----0--0--0------------- 
g--x---x--0-------0--0-------0--0-----0---0--------0--0-----0--0------------- 
d--2---2--0-------0--0-------0--0-----0---0--------0--0-----0--0-------------  
a--2---2--0-------------2----0------------0---2----0-------------------------             
e--0---0--0--3----3-----0----0--3-----3-------0----0--3-----3----------------    
e-----0-----0-----3--3-------------------------------------------------------
b-----0-----0-----0--0----0--------------------------------------------------
g-----x-----0--0--0--0----0--------------------------------------------------
d-----2--2--0--0-----0----0--------------------------------------------------
a--2-----2--0-------------0--------------------------------------------------
e--0-----0-----3-----3-------------------------------------------------------  
 versestrum the chords Em and G chorus
e---------------------(0)--------0--0------0--0--(0)-------------------------
b--6---6--6-----6--6--(0)--------0--0------0--0--(0)-------------------------     
g--6---6--6-----6--6-------------3--3------3--3------------------------------             
d--6---6--6-----6--6---------4---4--4------4--4------------------------------
a--4---4--4------------------4----------4------------------------------------             
e------------4---------------2----------2------------------------------------
 play that 2 times, then
e--0---0--0-----0--0--0---0--0--0--------------------------------------------
b--0---0--0-----0--0--0---2--2--2--5----5--5--(0)----------------------------
g--x---x--x-----x--x--x---2--2--2--5----5--5--(0)----------------------------
d--2---2--2---------------2-----2--5----5--5--(0)----------------------------
a--2---2--2--2------------0-----0--3----3--3---------------------------------  
e--0---0--0--0---------------------------------------------------------------
 solo
e----------------------------------------------------------------------------
b-------------------------9/12-12-12-----------------------------------------                           
g--------------7--7/9-----9/12-12-12-----------------------------------------              
d-----------5--7--7/9--9--9/12-12-12-----------------------------------------           
a-----5--7-------------------------------------------------------------------                               
e--0-------------------------------------------------------------------------                                   
e----------------------------------------------------------------------------
b---------------------------9----12----12------------------------------------
g--------------7--7--7/9----9----12----12------------------------------------
d-----------5--7--7--7/9----9----12----12------------------------------------
a------5--7--------------0----0-----0------0---------------------------------
e--0-------------------------------------------------------------------------
e----------------------------------------------------------------------------
b--------------------7/9-----9--12----12-------------------------------------                     
g-----------------7--7/9--9--9--12-12-12-------------------------------------                     
d-----------5--7--7--7/9--9--9--12-12-12-------------------------------------           
a-----5--7-------------------------------------------------------------------                                   
e--0-------------------------------------------------------------------------                                       
e----------------------------------------------------------------------------
b--------------------7/9--9--9--9/12--12--12---------------------------------
g--------------------7/9--9--9--9/12--12--12---------------------------------
d-----------5--7--7--7/9--9--9--9/12--12--12---------------------------------
a-----5--7-------------------------------------------------------------------
e--0-------------------------------------------------------------------------
 then play chorus, verse chorus and then
e--0---0--0-------0--0--0--0--0--0-----------------------------------0-------
b--0---0--0-------0--0--0--2--2--2--5---5-5-5-5-5-5-5-5-5-5-5-5-5-5--0-------
g--x---x--x-------x--x--x--2--2--2--5---5-5-5-5-5-5-5-5-5-5-5-5-5-5--0-------
d--2---2--2----------------2-----2--5---5-5-5-5-5-5-5-5-5-5-5-5-5-5--0-------
a--2---2--2--2-------------0-----0--3---3-3-3-3-3-3-3-3-3-3-3-3-3-3--0------- 
e--0---0--0--0-------------------------------------------------------0-------
 then Em  and  G  to end of song





NIRVANA Chords - about a girl4 Tabs, Tab for Guitar

Site contains NIRVANA tabs (tablatures), chords, song lyrics of popular songs, compilations.
You may find about a girl4 - NIRVANA tab, lyric, free tabs for guitars and basses here.


© 2002 TabPower.com All tabs are the author's own work and represents their interpretation of the NIRVANA song.
You may only use this NIRVANA tab for private study, scholarship, or research.
about a girl4 Tab by NIRVANA Tabs/Chords/Tablatures
Online Guitar Lessons