LED ZEPPELIN Tabs, heartbreaker2
Search tabs by artist/band name or song title:  

LED ZEPPELIN Tabs - heartbreaker2 Guitar Tablatures, Chords






heartbreaker2 tabs @ 911Tabs
#----------------------------------PLEASE NOTE----------------------------------#
# This file is the author's own work and represents their interpretation of the #
# song. You may only use this file for private study, scholarship, or research. #
#-------------------------------------------------------------------------------#

this is the original way to play heartbreaker.

1.|--------------------------------------------------------|
  |--------------------------------------------------------|
  |--------------------------------------------------------|
  |--------------------------------------------------------|
  |------------5-6-7---------------5-6-7-------------------|
  |-3~---5--8--------3--5-5-5-5--8-------3-----------------| 2*

2.|--------------------------------------------------------|
  |--------------------------------------------------------|
  |--------------------------------------------------------|
  |--------------------------------------------------------|
  |--------7-8-9----------------7-8-9----------------------|
  |-7--10--------5--7-7-7-7--10--------7-------------------|

got suggestions or questions mail me at: jandrol@hotmail.com





LED ZEPPELIN Chords - heartbreaker2 Tabs, Tab for Guitar

Site contains LED ZEPPELIN tabs (tablatures), chords, song lyrics of popular songs, compilations.
You may find heartbreaker2 - LED ZEPPELIN tab, lyric, free tabs for guitars and basses here.


© 2002 TabPower.com All tabs are the author's own work and represents their interpretation of the LED ZEPPELIN song.
You may only use this LED ZEPPELIN tab for private study, scholarship, or research.
heartbreaker2 Tab by LED ZEPPELIN Tabs/Chords/Tablatures
Online Guitar Lessons