GOB Tabs, i hear you calling2
Search tabs by artist/band name or song title:  

GOB Tabs - i hear you calling2 Guitar Tablatures, Chords






i hear you calling2 tabs @ 911Tabs
#----------------------------------PLEASE NOTE----------------------------------#
# This file is the author's own work and represents their interpretation of the #
# song. You may only use this file for private study, scholarship, or research. #
#-------------------------------------------------------------------------------#

------------------------------------------------------------------------------- 
I HEAR YOU CALLING - Gob 
------------------------------------------------------------------------------- 

By: Jordan pintie_thegreatone@hotmail.com 

Ok ppl Ive been lookin around for the correct version of this tab and no one 
has it correct so here it is 100% correct 

chords: A D C A# B 
--4-- --6-- --6-- --2-- --4-- 
--4-- --6-- --6-- --2-- --4-- 
--2-- --4-- --4-- --0-- --2-- 
Intro: 
e|-------------------------------------------------------------------------------------| 
B|-------------------------------------------------------------------------------------| 
G|-------------------------------------------------------------------------------------| 
D|---4---4-4---6-4---------------------------------------------------------------------| 
A|-6---6-----6-----6-6-4-6-4-2-2-2-2-2---6-4-6-4-2-2-2-2-2--6-4-6-4-2-2-2-2-2---6-4-4-2| 
E|-------------------------------------4-------------------4------------------4--------| 

Verse:x2 
e|---------------------------------------------------------------------------| 
B|---------------------------------------------------------------------------| 
G|-44444444-6-4--------------------------------------------------------------| 
D|-44444444-6-4-66666666-22222222-66666666-22222222-66666666-22222222-6-44-2-| 
A|-22222222-4-2-66666666-22222222-66666666-22222222-66666666-22222222-6-44-2-| 
E|--------------44444444-00000000-44444444-00000000-44444444-00000000-4-22-0-| 

Chorous: 
e|---------------------------------------------------------------------------| 
B|---------------------------------------------------------------------------| 
G|-------------------66666666----------------------------66666666------------| 
D|-22222222-44444444-66666666-66666666-22222222-44444444-66666666-6666-4444--| 
A|-22222222-44444444-44444444-66666666-22222222-44444444-44444444-6666-4444--| 
E|-00000000-22222222----------44444444-00000000-22222222----------4444-2222--| 
xxxxxxxx xxxxxxxx xxxxxxxx xxxxxxxx xxxxxxxx xxxxxxxx xxxxxxxx xxxx xxxx 

Order of play: intro 
verse 
chorous 
verse 
chorous 
intro 
chorous ( gets louder then fades out) 

Thats it email me if there are anymistakes (even though there isn't) or 
for more tabs PEACE 

-------------------------------------------------------------------------------






GOB Chords - i hear you calling2 Tabs, Tab for Guitar

Site contains GOB tabs (tablatures), chords, song lyrics of popular songs, compilations.
You may find i hear you calling2 - GOB tab, lyric, free tabs for guitars and basses here.


© 2002 TabPower.com All tabs are the author's own work and represents their interpretation of the GOB song.
You may only use this GOB tab for private study, scholarship, or research.
i hear you calling2 Tab by GOB Tabs/Chords/Tablatures
Online Guitar Lessons