ROLLING STONES Tabs, angie3
Search tabs by artist/band name or song title:  

ROLLING STONES Tabs - angie3 Guitar Tablatures, Chords






angie3 tabs @ 911Tabs
#----------------------------------PLEASE NOTE----------------------------------#
# This file is the author's own work and represents their interpretation of the #
# song. You may only use this file for private study, scholarship, or research. #
#-------------------------------------------------------------------------------#

ANGIE
WORDS AND MUSIC BY THE ROLLING STONES
TABBED BY BJOERN ELSNER	

Here is the most famous Stones-Ballad "Angie".I hope you excuse any mistakes, because I tabbed
it on the fly.But it must be OK.You Find this Song remastered on "The Rolling Stones-Jump Back"
(Virgin Records/1993).Keith plays it very slow.I tabbed two Intro-versions:an easy one, and the
original-intro.Play the easy one first,then you get the feelin' for the original Intro. 


EASY-INTRO

|---0-0-0-3-0--------------0---------0-----3------1--0-0------------------0--|
|---1--------------------3---3-----------0---0----1--1---1----------------1--|
|-2-2---------2--------1-------1-1-----0-------0--2--0-----0--------------2--|
|---2-----------2---------------------------------3--2-------0-2---2------2--|
|---0-------------0-2--------------------------------3---------2-2---2-0--0--|
|---0------------------------------3--------------------------------------0--|

ORIGINAL-INTRO

|-----0-0-0-0-3-0-------------------0----------0-------3--------------1-------1--|
|-----1---1---1-1-----1-----------3---3------3-------3---3--------------1---1----|
|-----2---2-------2-2-----------1-------1----1-----5-------5----3-2-2-----2------|
|-----2-----------------2-2----------------------5-----------5--3-3-3------------|
|-12--0--------------------------------------------------------------------------|
|----------------------------0-------------4-------------------------------------|


|-------------0--------------|
|-------------1--------------|
|-----0-------0-------2------|
|---3-3--2-2-------0-----0---|
|-3------3-3-----------------|
|-----------------2----------|                     
                      __  __
                     /- \/- \
                    / ______ \ 
                    \ \_/\_/ |
                    / -  | - /
                   / -  | - /
                   |  | -  /
                    \_____/ Rolling Stones - Tongue





ROLLING STONES Chords - angie3 Tabs, Tab for Guitar

Site contains ROLLING STONES tabs (tablatures), chords, song lyrics of popular songs, compilations.
You may find angie3 - ROLLING STONES tab, lyric, free tabs for guitars and basses here.


© 2002 TabPower.com All tabs are the author's own work and represents their interpretation of the ROLLING STONES song.
You may only use this ROLLING STONES tab for private study, scholarship, or research.
angie3 Tab by ROLLING STONES Tabs/Chords/Tablatures
Online Guitar Lessons